  0
SECTION
  2
HEADER
  9
$ACADVER
  1
AC1014
  9
$ACADMAINTVER
 70
     9
  9
$DWGCODEPAGE
  3
ANSI_949
  9
$INSBASE
 10
368.5
 20
284.5
 30
0.0
  9
$EXTMIN
 10
0.6600961935009764
 20
46.32920911946473
 30
-0.0000000000000058
  9
$EXTMAX
 10
364.3533334326387
 20
248.6767737065404
 30
0.0000000000000104
  9
$LIMMIN
 10
0.0
 20
0.0
  9
$LIMMAX
 10
420.0
 20
297.0
  9
$ORTHOMODE
 70
     0
  9
$REGENMODE
 70
     1
  9
$FILLMODE
 70
     1
  9
$QTEXTMODE
 70
     0
  9
$MIRRTEXT
 70
     1
  9
$DRAGMODE
 70
     2
  9
$LTSCALE
 40
4.0
  9
$OSMODE
 70
    37
  9
$ATTMODE
 70
     1
  9
$TEXTSIZE
 40
4.5
  9
$TRACEWID
 40
0.05
  9
$TEXTSTYLE
  7
STANDARD
  9
$CLAYER
  8
0
  9
$CELTYPE
  6
BYLAYER
  9
$CECOLOR
 62
   256
  9
$CELTSCALE
 40
1.0
  9
$DELOBJ
 70
     1
  9
$DISPSILH
 70
     0
  9
$DIMSCALE
 40
1.0
  9
$DIMASZ
 40
4.25
  9
$DIMEXO
 40
1.5
  9
$DIMDLI
 40
0.38
  9
$DIMRND
 40
0.0
  9
$DIMDLE
 40
0.0
  9
$DIMEXE
 40
1.5
  9
$DIMTP
 40
0.0
  9
$DIMTM
 40
0.0
  9
$DIMTXT
 40
4.5
  9
$DIMCEN
 40
0.09
  9
$DIMTSZ
 40
0.0
  9
$DIMTOL
 70
     0
  9
$DIMLIM
 70
     0
  9
$DIMTIH
 70
     0
  9
$DIMTOH
 70
     1
  9
$DIMSE1
 70
     0
  9
$DIMSE2
 70
     0
  9
$DIMTAD
 70
     1
  9
$DIMZIN
 70
     8
  9
$DIMBLK
  1

  9
$DIMASO
 70
     0
  9
$DIMSHO
 70
     1
  9
$DIMPOST
  1

  9
$DIMAPOST
  1

  9
$DIMALT
 70
     0
  9
$DIMALTD
 70
     2
  9
$DIMALTF
 40
25.4
  9
$DIMLFAC
 40
1.0
  9
$DIMTOFL
 70
     1
  9
$DIMTVP
 40
0.0
  9
$DIMTIX
 70
     1
  9
$DIMSOXD
 70
     0
  9
$DIMSAH
 70
     0
  9
$DIMBLK1
  1

  9
$DIMBLK2
  1

  9
$DIMSTYLE
  2
STANDARD
  9
$DIMCLRD
 70
     5
  9
$DIMCLRE
 70
     5
  9
$DIMCLRT
 70
     3
  9
$DIMTFAC
 40
0.6666666666666666
  9
$DIMGAP
 40
0.09
  9
$DIMJUST
 70
     0
  9
$DIMSD1
 70
     0
  9
$DIMSD2
 70
     0
  9
$DIMTOLJ
 70
     1
  9
$DIMTZIN
 70
     8
  9
$DIMALTZ
 70
     8
  9
$DIMALTTZ
 70
     8
  9
$DIMFIT
 70
     3
  9
$DIMUPT
 70
     0
  9
$DIMUNIT
 70
     2
  9
$DIMDEC
 70
     4
  9
$DIMTDEC
 70
     4
  9
$DIMALTU
 70
     2
  9
$DIMALTTD
 70
     2
  9
$DIMTXSTY
  7
STANDARD
  9
$DIMAUNIT
 70
     0
  9
$LUNITS
 70
     2
  9
$LUPREC
 70
     4
  9
$SKETCHINC
 40
0.1
  9
$FILLETRAD
 40
3.0
  9
$AUNITS
 70
     0
  9
$AUPREC
 70
     0
  9
$MENU
  1
acad
  9
$ELEVATION
 40
0.0
  9
$PELEVATION
 40
0.0
  9
$THICKNESS
 40
0.0
  9
$LIMCHECK
 70
     0
  9
$BLIPMODE
 70
     0
  9
$CHAMFERA
 40
0.5
  9
$CHAMFERB
 40
0.5
  9
$CHAMFERC
 40
0.0
  9
$CHAMFERD
 40
0.0
  9
$SKPOLY
 70
     0
  9
$TDCREATE
 40
2450308.701059027
  9
$TDUPDATE
 40
2453069.721843530
  9
$TDINDWG
 40
0.3985630208
  9
$TDUSRTIMER
 40
0.3985628472
  9
$USRTIMER
 70
     1
  9
$ANGBASE
 50
0.0
  9
$ANGDIR
 70
     0
  9
$PDMODE
 70
     0
  9
$PDSIZE
 40
0.0
  9
$PLINEWID
 40
0.0
  9
$COORDS
 70
     2
  9
$SPLFRAME
 70
     0
  9
$SPLINETYPE
 70
     6
  9
$SPLINESEGS
 70
     8
  9
$ATTDIA
 70
     0
  9
$ATTREQ
 70
     1
  9
$HANDLING
 70
 12289
  9
$HANDSEED
  5
1249
  9
$SURFTAB1
 70
     6
  9
$SURFTAB2
 70
     6
  9
$SURFTYPE
 70
     6
  9
$SURFU
 70
     6
  9
$SURFV
 70
     6
  9
$UCSNAME
  2

  9
$UCSORG
 10
0.0
 20
0.0
 30
0.0
  9
$UCSXDIR
 10
1.0
 20
0.0
 30
0.0
  9
$UCSYDIR
 10
0.0
 20
1.0
 30
0.0
  9
$PUCSNAME
  2

  9
$PUCSORG
 10
0.0
 20
0.0
 30
0.0
  9
$PUCSXDIR
 10
1.0
 20
0.0
 30
0.0
  9
$PUCSYDIR
 10
0.0
 20
1.0
 30
0.0
  9
$USERI1
 70
     0
  9
$USERI2
 70
     0
  9
$USERI3
 70
     0
  9
$USERI4
 70
     0
  9
$USERI5
 70
     0
  9
$USERR1
 40
0.0
  9
$USERR2
 40
0.0
  9
$USERR3
 40
0.0
  9
$USERR4
 40
0.0
  9
$USERR5
 40
0.0
  9
$WORLDVIEW
 70
     1
  9
$SHADEDGE
 70
     3
  9
$SHADEDIF
 70
    70
  9
$TILEMODE
 70
     1
  9
$MAXACTVP
 70
    16
  9
$PINSBASE
 10
0.0
 20
0.0
 30
0.0
  9
$PLIMCHECK
 70
     0
  9
$PEXTMIN
 10
1.000000000000000E+20
 20
1.000000000000000E+20
 30
1.000000000000000E+20
  9
$PEXTMAX
 10
-1.000000000000000E+20
 20
-1.000000000000000E+20
 30
-1.000000000000000E+20
  9
$PLIMMIN
 10
0.0
 20
0.0
  9
$PLIMMAX
 10
12.0
 20
9.0
  9
$UNITMODE
 70
     0
  9
$VISRETAIN
 70
     0
  9
$PLINEGEN
 70
     0
  9
$PSLTSCALE
 70
     1
  9
$TREEDEPTH
 70
  3020
  9
$PICKSTYLE
 70
     1
  9
$CMLSTYLE
  2
STANDARD
  9
$CMLJUST
 70
     0
  9
$CMLSCALE
 40
1.0
  9
$PROXYGRAPHICS
 70
     1
  9
$MEASUREMENT
 70
     0
  0
ENDSEC
  0
SECTION
  2
CLASSES
  0
CLASS
  1
ACDBDICTIONARYWDFLT
  2
AcDbDictionaryWithDefault
  3
AutoCAD 2000
 90
        0
280
     0
281
     0
  0
CLASS
  1
ACDBPLACEHOLDER
  2
AcDbPlaceHolder
  3
AutoCAD 2000
 90
        0
280
     0
281
     0
  0
CLASS
  1
LAYOUT
  2
AcDbLayout
  3
AutoCAD 2000
 90
        0
280
     0
281
     0
  0
CLASS
  1
LONG_TRANSACTION
  2
AcDbLongTransaction
  3
AutoCAD 2000
 90
        0
280
     0
281
     0
  0
CLASS
  1
LWPOLYLINE
  2
AcDbPolyline
  3
AutoCAD 2000
 90
        0
280
     0
281
     1
  0
CLASS
  1
HATCH
  2
AcDbHatch
  3
AutoCAD 2000
 90
        0
280
     0
281
     1
  0
CLASS
  1
XRECORD
  2
AcDbXrecord
  3
AutoCAD 2000
 90
        0
280
     0
281
     0
  0
CLASS
  1
LONG_TRANSACTION
  2
AcDbLongTransaction
  3
AutoCAD 2000
 90
        0
280
     0
281
     0
  0
CLASS
  1
LWPOLYLINE
  2
AcDbPolyline
  3
AutoCAD 2000
 90
        0
280
     0
281
     1
  0
CLASS
  1
HATCH
  2
AcDbHatch
  3
AutoCAD 2000
 90
        0
280
     0
281
     1
  0
CLASS
  1
XRECORD
  2
AcDbXrecord
  3
AutoCAD 2000
 90
        0
280
     0
281
     0
  0
CLASS
  1
LONG_TRANSACTION
  2
AcDbLongTransaction
  3
AutoCAD 2000
 90
        0
280
     0
281
     0
  0
CLASS
  1
LWPOLYLINE
  2
AcDbPolyline
  3
AutoCAD 2000
 90
        0
280
     0
281
     1
  0
CLASS
  1
HATCH
  2
AcDbHatch
  3
AutoCAD 2000
 90
        0
280
     0
281
     1
  0
CLASS
  1
XRECORD
  2
AcDbXrecord
  3
AutoCAD 2000
 90
        0
280
     0
281
     0
  0
ENDSEC
  0
SECTION
  2
TABLES
  0
TABLE
  2
VPORT
  5
8
330
0
100
AcDbSymbolTable
 70
     2
  0
VPORT
  5
1226
330
8
100
AcDbSymbolTableRecord
100
AcDbViewportTableRecord
  2
*ACTIVE
 70
     0
 10
0.0
 20
0.0
 11
1.0
 21
1.0
 12
182.5067148130698
 22
147.5029914130025
 13
0.0
 23
0.0
 14
0.25
 24
0.25
 15
5.0
 25
5.0
 16
0.0
 26
0.0
 36
1.0
 17
0.0
 27
0.0
 37
0.0
 40
248.9427234770331
 41
1.467911318553092
 42
50.0
 43
0.0
 44
0.0
 50
0.0
 51
0.0
 71
     0
 72
   100
 73
     1
 74
     1
 75
     0
 76
     0
 77
     0
 78
     0
  0
ENDTAB
  0
TABLE
  2
LTYPE
  5
5
330
0
100
AcDbSymbolTable
 70
     1
  0
LTYPE
  5
13
330
5
100
AcDbSymbolTableRecord
100
AcDbLinetypeTableRecord
  2
BYBLOCK
 70
     0
  3

 72
    65
 73
     0
 40
0.0
  0
LTYPE
  5
14
330
5
100
AcDbSymbolTableRecord
100
AcDbLinetypeTableRecord
  2
BYLAYER
 70
     0
  3

 72
    65
 73
     0
 40
0.0
  0
LTYPE
  5
15
330
5
100
AcDbSymbolTableRecord
100
AcDbLinetypeTableRecord
  2
CONTINUOUS
 70
     0
  3
Solid line
 72
    65
 73
     0
 40
0.0
  0
ENDTAB
  0
TABLE
  2
LAYER
  5
2
330
0
100
AcDbSymbolTable
 70
     2
  0
LAYER
  5
10
330
2
100
AcDbSymbolTableRecord
100
AcDbLayerTableRecord
  2
0
 70
     0
 62
     7
  6
CONTINUOUS
  0
LAYER
  5
11FB
330
2
100
AcDbSymbolTableRecord
100
AcDbLayerTableRecord
  2
PEG-L150AG
 70
     0
 62
     7
  6
CONTINUOUS
  0
ENDTAB
  0
TABLE
  2
STYLE
  5
3
330
0
100
AcDbSymbolTable
 70
     1
  0
STYLE
  5
11
330
3
100
AcDbSymbolTableRecord
100
AcDbTextStyleTableRecord
  2
STANDARD
 70
     0
 40
4.5
 41
1.0
 50
0.0
 71
     0
 42
4.5
  3
ROMANS
  4
HBRDS
  0
ENDTAB
  0
TABLE
  2
VIEW
  5
6
330
0
100
AcDbSymbolTable
 70
     0
  0
ENDTAB
  0
TABLE
  2
UCS
  5
7
330
0
100
AcDbSymbolTable
 70
     0
  0
ENDTAB
  0
TABLE
  2
APPID
  5
9
330
0
100
AcDbSymbolTable
 70
     2
  0
APPID
  5
12
330
9
100
AcDbSymbolTableRecord
100
AcDbRegAppTableRecord
  2
ACAD
 70
     0
  0
APPID
  5
110F
330
9
100
AcDbSymbolTableRecord
100
AcDbRegAppTableRecord
  2
DCO15
 70
     0
  0
ENDTAB
  0
TABLE
  2
DIMSTYLE
  5
A
330
0
100
AcDbSymbolTable
 70
     1
  0
DIMSTYLE
105
FAC
330
A
100
AcDbSymbolTableRecord
100
AcDbDimStyleTableRecord
  2
STANDARD
 70
     0
  3

  4

  5

  6

  7

 40
1.0
 41
0.18
 42
0.0625
 43
0.38
 44
0.18
 45
0.0
 46
0.0
 47
0.0
 48
0.0
140
0.18
141
0.09
142
0.0
143
25.4
144
1.0
145
0.0
146
1.0
147
0.09
 71
     0
 72
     0
 73
     1
 74
     1
 75
     0
 76
     0
 77
     0
 78
     0
170
     0
171
     2
172
     0
173
     0
174
     0
175
     0
176
     0
177
     0
178
     0
270
     2
271
     4
272
     4
273
     2
274
     2
340
11
275
     0
280
     0
281
     0
282
     0
283
     1
284
     0
285
     0
286
     0
287
     3
288
     0
  0
ENDTAB
  0
TABLE
  2
BLOCK_RECORD
  5
1
330
0
100
AcDbSymbolTable
 70
     1
  0
BLOCK_RECORD
  5
1E
102
{ACAD_XDICTIONARY
360
11F2
102
}
330
1
100
AcDbSymbolTableRecord
100
AcDbBlockTableRecord
  2
*MODEL_SPACE
  0
BLOCK_RECORD
  5
1A
102
{ACAD_XDICTIONARY
360
11F0
102
}
330
1
100
AcDbSymbolTableRecord
100
AcDbBlockTableRecord
  2
*PAPER_SPACE
  0
BLOCK_RECORD
  5
28
330
1
100
AcDbSymbolTableRecord
100
AcDbBlockTableRecord
  2
*X0
  0
ENDTAB
  0
ENDSEC
  0
SECTION
  2
BLOCKS
  0
BLOCK
  5
32
330
1E
100
AcDbEntity
  8
0
100
AcDbBlockBegin
  2
*MODEL_SPACE
 70
     0
 10
0.0
 20
0.0
 30
0.0
  3
*MODEL_SPACE
  1

  0
ENDBLK
  5
33
330
1E
100
AcDbEntity
  8
0
100
AcDbBlockEnd
  0
BLOCK
  5
30
330
1A
100
AcDbEntity
 67
     1
  8
0
100
AcDbBlockBegin
  2
*PAPER_SPACE
 70
     0
 10
0.0
 20
0.0
 30
0.0
  3
*PAPER_SPACE
  1

  0
ENDBLK
  5
31
330
1A
100
AcDbEntity
 67
     1
  8
0
100
AcDbBlockEnd
  0
BLOCK
  5
A7D
330
28
100
AcDbEntity
  8
0
100
AcDbBlockBegin
  2
*X0
 70
     1
 10
0.0
 20
0.0
 30
0.0
  3
*X0
  1

  0
LINE
  5
A7E
330
28
100
AcDbEntity
  8
0
 62
     0
100
AcDbLine
 10
277.1132973259261
 20
186.603629334048
 30
0.0
 11
278.1463706659518
 21
187.6367026740738
 31
0.0
  0
LINE
  5
A7F
330
28
100
AcDbEntity
  8
0
 62
     0
100
AcDbLine
 10
277.0270862336372
 20
186.8002609542338
 30
0.0
 11
277.9497390457659
 21
187.7229137663625
 31
0.0
  0
LINE
  5
A80
330
28
100
AcDbEntity
  8
0
 62
     0
100
AcDbLine
 10
277.0022682433345
 20
187.0582856764056
 30
0.0
 11
277.691714323594
 21
187.7477317566651
 31
0.0
  0
LINE
  5
A81
330
28
100
AcDbEntity
  8
0
 62
     0
100
AcDbLine
 10
277.2413513891756
 20
186.4488406848229
 30
0.0
 11
278.301159315177
 21
187.5086486108243
 31
0.0
  0
LINE
  5
A82
330
28
100
AcDbEntity
  8
0
 62
     0
100
AcDbLine
 10
277.4079131117273
 20
186.3325596949
 30
0.0
 11
278.4174403050998
 21
187.3420868882726
 31
0.0
  0
LINE
  5
A83
330
28
100
AcDbEntity
  8
0
 62
     0
100
AcDbLine
 10
277.6196163422786
 20
186.2614202129766
 30
0.0
 11
278.488579787023
 21
187.1303836577211
 31
0.0
  0
LINE
  5
A84
330
28
100
AcDbEntity
  8
0
 62
     0
100
AcDbLine
 10
277.9078347921515
 20
186.2667959503749
 30
0.0
 11
278.483204049625
 21
186.8421652078484
 31
0.0
  0
ENDBLK
  5
A85
330
28
100
AcDbEntity
  8
0
100
AcDbBlockEnd
  0
ENDSEC
  0
SECTION
  2
ENTITIES
  0
LINE
  5
A88
330
1E
100
AcDbEntity
  8
PEG-L150AG
100
AcDbLine
 10
143.8333333333332
 20
61.33333333333332
 30
0.0
 11
49.83333333333331
 21
61.33333333333332
 31
0.0
  0
LINE
  5
A89
330
1E
100
AcDbEntity
  8
PEG-L150AG
100
AcDbLine
 10
215.1666666666665
 20
245.1666666666663
 30
0.0
 11
28.5
 21
245.1666666666663
 31
0.0
  0
LINE
  5
A8A
330
1E
100
AcDbEntity
  8
PEG-L150AG
100
AcDbLine
 10
24.83333333333334
 20
218.4999999999998
 30
0.0
 11
219.8333333333331
 21
218.4999999999998
 31
0.0
  0
LINE
  5
A8B
330
1E
100
AcDbEntity
  8
PEG-L150AG
100
AcDbLine
 10
28.5
 20
79.99999999999999
 30
0.0
 11
103.0230731272175
 21
79.99999999999999
 31
0.0
  0
LINE
  5
A8C
330
1E
100
AcDbEntity
  8
PEG-L150AG
100
AcDbLine
 10
28.5
 20
73.33333333333332
 30
0.0
 11
91.83333333333328
 21
73.33333333333332
 31
0.0
  0
LINE
  5
A8F
330
1E
100
AcDbEntity
  8
PEG-L150AG
100
AcDbLine
 10
215.1666666666665
 20
191.8333333333331
 30
0.0
 11
28.5
 21
191.8333333333331
 31
0.0
  0
LINE
  5
A90
330
1E
100
AcDbEntity
  8
PEG-L150AG
100
AcDbLine
 10
28.5
 20
78.33333333333332
 30
0.0
 11
95.40476190476182
 21
78.33333333333328
 31
0.0
  0
LINE
  5
A91
330
1E
100
AcDbEntity
  8
PEG-L150AG
100
AcDbLine
 10
95.16666666666663
 20
234.4999999999997
 30
0.0
 11
95.40476190476182
 21
234.4999999999997
 31
0.0
  0
LINE
  5
A92
330
1E
100
AcDbEntity
  8
PEG-L150AG
100
AcDbLine
 10
95.16666666666663
 20
202.4999999999998
 30
0.0
 11
95.40476190476182
 21
202.4999999999998
 31
0.0
  0
ARC
  5
A93
330
1E
100
AcDbEntity
  8
PEG-L150AG
100
AcDbCircle
 10
96.49999999999996
 20
207.1666666666664
 30
0.0
 40
1.333333333333332
100
AcDbArc
 50
90.0
 51
180.0
  0
ARC
  5
A94
330
1E
100
AcDbEntity
  8
PEG-L150AG
100
AcDbCircle
 10
97.83333333333326
 20
205.833333333333
 30
0.0
 40
1.333333333333332
100
AcDbArc
 50
90.0
 51
180.0
  0
ARC
  5
A95
330
1E
100
AcDbEntity
  8
PEG-L150AG
100
AcDbCircle
 10
101.833333333333
 20
207.1666666666664
 30
0.0
 40
1.333333333333332
100
AcDbArc
 50
0.0
 51
90.0
  0
ARC
  5
A96
330
1E
100
AcDbEntity
  8
PEG-L150AG
100
AcDbCircle
 10
100.4999999999999
 20
205.833333333333
 30
0.0
 40
1.333333333333332
100
AcDbArc
 50
0.0
 51
90.0
  0
LINE
  5
A97
330
1E
100
AcDbEntity
  8
PEG-L150AG
100
AcDbLine
 10
204.0948698969418
 20
205.833333333333
 30
0.0
 11
204.0948698969418
 21
231.2499999999998
 31
0.0
  0
LINE
  5
A98
330
1E
100
AcDbEntity
  8
PEG-L150AG
100
AcDbLine
 10
215.1666666666665
 20
191.8333333333331
 30
0.0
 11
215.1666666666665
 21
245.1666666666663
 31
0.0
  0
LINE
  5
A99
330
1E
100
AcDbEntity
  8
PEG-L150AG
100
AcDbLine
 10
203.0409364067129
 20
202.4999999999998
 30
0.0
 11
203.0409364067129
 21
234.4999999999997
 31
0.0
  0
LINE
  5
A9A
330
1E
100
AcDbEntity
  8
PEG-L150AG
100
AcDbLine
 10
205.1666666666664
 20
202.4999999999998
 30
0.0
 11
205.1666666666664
 21
234.4999999999997
 31
0.0
  0
LINE
  5
A9B
330
1E
100
AcDbEntity
  8
PEG-L150AG
100
AcDbLine
 10
207.1666666666664
 20
200.4999999999999
 30
0.0
 11
207.1666666666664
 21
236.4999999999997
 31
0.0
  0
LINE
  5
A9C
330
1E
100
AcDbEntity
  8
PEG-L150AG
100
AcDbLine
 10
185.1666666666664
 20
202.4999999999998
 30
0.0
 11
185.1666666666664
 21
204.1999999999998
 31
0.0
  0
LINE
  5
A9D
330
1E
100
AcDbEntity
  8
PEG-L150AG
100
AcDbLine
 10
183.8333333333332
 20
200.4999999999999
 30
0.0
 11
183.8333333333332
 21
204.1999999999998
 31
0.0
  0
LINE
  5
A9E
330
1E
100
AcDbEntity
  8
PEG-L150AG
100
AcDbLine
 10
161.8333333333332
 20
162.6666666666665
 30
0.0
 11
161.8333333333332
 21
208.1334440883361
 31
0.0
  0
LINE
  5
A9F
330
1E
100
AcDbEntity
  8
PEG-L150AG
100
AcDbLine
 10
123.1666666666665
 20
202.4999999999998
 30
0.0
 11
123.1666666666665
 21
204.1999999999998
 31
0.0
  0
LINE
  5
AA0
330
1E
100
AcDbEntity
  8
PEG-L150AG
100
AcDbLine
 10
121.040936406713
 20
202.4999999999998
 30
0.0
 11
121.040936406713
 21
204.1999999999998
 31
0.0
  0
LINE
  5
AA1
330
1E
100
AcDbEntity
  8
PEG-L150AG
100
AcDbLine
 10
125.1666666666664
 20
200.4999999999999
 30
0.0
 11
125.1666666666664
 21
204.1999999999998
 31
0.0
  0
ARC
  5
AA2
330
1E
100
AcDbEntity
  8
PEG-L150AG
100
AcDbCircle
 10
148.5542771419718
 20
193.8333333333332
 30
0.0
 40
1.999999999999998
100
AcDbArc
 50
270.0
 51
330.0
  0
LINE
  5
AA3
330
1E
100
AcDbEntity
  8
PEG-L150AG
100
AcDbLine
 10
153.7504295646783
 20
201.4999999999997
 30
0.0
 11
148.7467272317016
 21
192.8333333333331
 31
0.0
  0
LINE
  5
AA4
330
1E
100
AcDbEntity
  8
PEG-L150AG
100
AcDbLine
 10
149.4308296034281
 20
66.29686653584986
 30
0.0
 11
148.4475250394351
 21
69.70313346415017
 31
0.0
  0
ARC
  5
AA5
330
1E
100
AcDbEntity
  8
PEG-L150AG
100
AcDbCircle
 10
150.7118548338687
 20
66.66666666666666
 30
0.0
 40
1.333333333333332
100
AcDbArc
 50
196.1021137519859
 51
270.0
  0
LINE
  5
AA6
330
1E
100
AcDbEntity
  8
PEG-L150AG
100
AcDbLine
 10
215.1666666666665
 20
60.0
 30
0.0
 11
145.1666666666665
 21
60.0
 31
0.0
  0
LINE
  5
AA7
330
1E
100
AcDbEntity
  8
PEG-L150AG
100
AcDbLine
 10
215.1666666666665
 20
70.66666666666669
 30
0.0
 11
96.49999999999996
 21
70.66666666666669
 31
0.0
  0
LINE
  5
AA8
330
1E
100
AcDbEntity
  8
PEG-L150AG
100
AcDbLine
 10
183.9999999999998
 20
75.99999999999998
 30
0.0
 11
192.8333333333332
 21
75.99999999999998
 31
0.0
  0
LINE
  5
AAA
330
1E
100
AcDbEntity
  8
PEG-L150AG
100
AcDbLine
 10
207.1666666666664
 20
72.06666666666662
 30
0.0
 11
184.0333333333331
 21
72.06666666666662
 31
0.0
  0
LINE
  5
AAB
330
1E
100
AcDbEntity
  8
PEG-L150AG
100
AcDbLine
 10
188.4999999999998
 20
71.66666666666666
 30
0.0
 11
188.4999999999998
 21
80.49999999999998
 31
0.0
  0
LINE
  5
AAC
330
1E
100
AcDbEntity
  8
PEG-L150AG
100
AcDbLine
 10
207.1666666666664
 20
70.66666666666669
 30
0.0
 11
207.1666666666664
 21
72.06666666666662
 31
0.0
  0
LINE
  5
AAD
330
1E
100
AcDbEntity
  8
PEG-L150AG
100
AcDbLine
 10
215.1666666666665
 20
60.0
 30
0.0
 11
215.1666666666665
 21
70.66666666666669
 31
0.0
  0
CIRCLE
  5
ABB
330
1E
100
AcDbEntity
  8
PEG-L150AG
100
AcDbCircle
 10
188.4999999999998
 20
75.99999999999998
 30
0.0
 40
1.166666666666665
  0
ARC
  5
ABC
330
1E
100
AcDbEntity
  8
PEG-L150AG
100
AcDbCircle
 10
188.4999999999998
 20
75.99999999999998
 30
0.0
 40
1.666666666666665
100
AcDbArc
 50
5.710593137499633
 51
275.1944289077348
  0
LINE
  5
ABD
330
1E
100
AcDbEntity
  8
PEG-L150AG
100
AcDbLine
 10
161.8333333333332
 20
48.0
 30
0.0
 11
161.8333333333332
 21
73.49999999999998
 31
0.0
  0
LINE
  5
ABE
330
1E
100
AcDbEntity
  8
PEG-L150AG
100
AcDbLine
 10
184.0238095238093
 20
71.99999999999997
 30
0.0
 11
183.8333333333332
 21
70.66666666666669
 31
0.0
  0
LINE
  5
ABF
330
1E
100
AcDbEntity
  8
PEG-L150AG
100
AcDbLine
 10
172.9548118327977
 20
65.33333333333337
 30
0.0
 11
150.7118548338687
 21
65.33333333333337
 31
0.0
  0
ARC
  5
AC0
330
1E
100
AcDbEntity
  8
PEG-L150AG
100
AcDbCircle
 10
172.9548118327977
 20
66.66666666666666
 30
0.0
 40
1.333333333333332
100
AcDbArc
 50
270.0
 51
343.897886248014
  0
LINE
  5
AC1
330
1E
100
AcDbEntity
  8
PEG-L150AG
100
AcDbLine
 10
174.2358370632383
 20
66.29686653584986
 30
0.0
 11
175.2191416272313
 21
69.70313346415017
 31
0.0
  0
ARC
  5
AC2
330
1E
100
AcDbEntity
  8
PEG-L150AG
100
AcDbCircle
 10
176.5001668576719
 20
69.33333333333333
 30
0.0
 40
1.333333333333332
100
AcDbArc
 50
90.0
 51
163.897886248014
  0
LINE
  5
AC3
330
1E
100
AcDbEntity
  8
PEG-L150AG
100
AcDbLine
 10
163.8333333333332
 20
65.33333333333337
 30
0.0
 11
163.8333333333332
 21
60.0
 31
0.0
  0
LINE
  5
AC4
330
1E
100
AcDbEntity
  8
PEG-L150AG
100
AcDbLine
 10
159.8333333333332
 20
65.33333333333337
 30
0.0
 11
159.8333333333332
 21
60.0
 31
0.0
  0
LINE
  5
AC5
330
1E
100
AcDbEntity
  8
PEG-L150AG
100
AcDbLine
 10
207.1666666666664
 20
200.4999999999999
 30
0.0
 11
183.8333333333332
 21
200.4999999999999
 31
0.0
  0
LINE
  5
AC6
330
1E
100
AcDbEntity
  8
PEG-L150AG
100
AcDbLine
 10
207.1666666666664
 20
202.4999999999998
 30
0.0
 11
183.8333333333332
 21
202.4999999999998
 31
0.0
  0
LINE
  5
AC7
330
1E
100
AcDbEntity
  8
PEG-L150AG
100
AcDbLine
 10
190.4999999999996
 20
197.1666666666664
 30
0.0
 11
190.4999999999996
 21
205.9999999999996
 31
0.0
  0
ARC
  5
AC8
330
1E
100
AcDbEntity
  8
PEG-L150AG
100
AcDbCircle
 10
161.8333333333332
 20
196.833333333333
 30
0.0
 40
7.999999999999992
100
AcDbArc
 50
29.99999999999998
 51
67.04821521979757
  0
ARC
  5
AC9
330
1E
100
AcDbEntity
  8
PEG-L150AG
100
AcDbCircle
 10
161.8333333333332
 20
196.833333333333
 30
0.0
 40
9.333333333333326
100
AcDbArc
 50
30.00000000000001
 51
52.11881040480527
  0
LINE
  5
ACA
330
1E
100
AcDbEntity
  8
PEG-L150AG
100
AcDbLine
 10
169.9162371019879
 20
201.4999999999997
 30
0.0
 11
174.9199394349646
 21
192.8333333333331
 31
0.0
  0
LINE
  5
ACB
330
1E
100
AcDbEntity
  8
PEG-L150AG
100
AcDbLine
 10
168.7615365636085
 20
200.8333333333331
 30
0.0
 11
173.3803387171255
 21
192.8333333333331
 31
0.0
  0
ARC
  5
ACC
330
1E
100
AcDbEntity
  8
PEG-L150AG
100
AcDbCircle
 10
176.6519902425334
 20
193.8333333333332
 30
0.0
 40
1.999999999999998
100
AcDbArc
 50
210.0
 51
270.0
  0
ARC
  5
ACD
330
1E
100
AcDbEntity
  8
PEG-L150AG
100
AcDbCircle
 10
175.1123895246945
 20
193.8333333333332
 30
0.0
 40
1.999999999999998
100
AcDbArc
 50
210.0
 51
270.0
  0
LINE
  5
ACE
330
1E
100
AcDbEntity
  8
PEG-L150AG
100
AcDbLine
 10
154.9051301030577
 20
200.8333333333331
 30
0.0
 11
150.2863279495404
 21
192.8333333333331
 31
0.0
  0
CIRCLE
  5
ACF
330
1E
100
AcDbEntity
  8
PEG-L150AG
100
AcDbCircle
 10
161.8333333333332
 20
196.833333333333
 30
0.0
 40
1.999999999999998
  0
LINE
  5
AD0
330
1E
100
AcDbEntity
  8
PEG-L150AG
100
AcDbLine
 10
156.3333333333332
 20
196.833333333333
 30
0.0
 11
167.3333333333332
 21
196.833333333333
 31
0.0
  0
LINE
  5
AD1
330
1E
100
AcDbEntity
  8
PEG-L150AG
100
AcDbLine
 10
103.9999999999997
 20
75.99999999999998
 30
0.0
 11
112.8333333333332
 21
75.99999999999998
 31
0.0
  0
LINE
  5
AD2
330
1E
100
AcDbEntity
  8
PEG-L150AG
100
AcDbLine
 10
127.1666666666664
 20
72.06666666666662
 30
0.0
 11
104.0333333333333
 21
72.06666666666662
 31
0.0
  0
LINE
  5
AD4
330
1E
100
AcDbEntity
  8
PEG-L150AG
100
AcDbLine
 10
127.1666666666664
 20
70.66666666666669
 30
0.0
 11
127.1666666666664
 21
72.06666666666662
 31
0.0
  0
ARC
  5
AD5
330
1E
100
AcDbEntity
  8
PEG-L150AG
100
AcDbCircle
 10
143.8333333333332
 20
60.0
 30
0.0
 40
1.333333333333332
100
AcDbArc
 50
0.0
 51
90.0
  0
ARC
  5
AD6
330
1E
100
AcDbEntity
  8
PEG-L150AG
100
AcDbCircle
 10
147.1664998089944
 20
69.33333333333333
 30
0.0
 40
1.333333333333332
100
AcDbArc
 50
16.10211375198591
 51
90.0
  0
LINE
  5
AD8
330
1E
100
AcDbEntity
  8
PEG-L150AG
100
AcDbLine
 10
91.83333333333328
 20
73.33333333333332
 30
0.0
 11
91.83333333333328
 21
61.33333333333332
 31
0.0
  0
LINE
  5
AD9
330
1E
100
AcDbEntity
  8
PEG-L150AG
100
AcDbLine
 10
104.4212359802632
 20
74.78198519517736
 30
0.0
 11
103.8333333333333
 21
70.66666666666669
 31
0.0
  0
LINE
  5
ADA
330
1E
100
AcDbEntity
  8
PEG-L150AG
100
AcDbLine
 10
95.1666666666666
 20
79.99999999999999
 30
0.0
 11
96.49999999999996
 21
70.66666666666669
 31
0.0
  0
LINE
  5
ADB
330
1E
100
AcDbEntity
  8
PEG-L150AG
100
AcDbLine
 10
108.4999999999999
 20
71.66666666666666
 30
0.0
 11
108.4999999999999
 21
80.49999999999998
 31
0.0
  0
ARC
  5
ADC
330
1E
100
AcDbEntity
  8
PEG-L150AG
100
AcDbCircle
 10
108.4999999999999
 20
75.99999999999998
 30
0.0
 40
1.666666666666665
100
AcDbArc
 50
5.710593137499633
 51
275.1944289077348
  0
CIRCLE
  5
ADD
330
1E
100
AcDbEntity
  8
PEG-L150AG
100
AcDbCircle
 10
108.4999999999999
 20
75.99999999999998
 30
0.0
 40
1.166666666666665
  0
LINE
  5
ADE
330
1E
100
AcDbEntity
  8
PEG-L150AG
100
AcDbLine
 10
81.83333333333328
 20
79.99999999999999
 30
0.0
 11
81.83333333333328
 21
73.33333333333332
 31
0.0
  0
LINE
  5
ADF
330
1E
100
AcDbEntity
  8
PEG-L150AG
100
AcDbLine
 10
125.1666666666664
 20
200.4999999999999
 30
0.0
 11
101.833333333333
 21
200.4999999999999
 31
0.0
  0
LINE
  5
AE0
330
1E
100
AcDbEntity
  8
PEG-L150AG
100
AcDbLine
 10
125.1666666666664
 20
202.4999999999998
 30
0.0
 11
101.833333333333
 21
202.4999999999998
 31
0.0
  0
ARC
  5
AE1
330
1E
100
AcDbEntity
  8
PEG-L150AG
100
AcDbCircle
 10
147.0146764241326
 20
193.8333333333332
 30
0.0
 40
1.999999999999998
100
AcDbArc
 50
270.0
 51
330.0
  0
LINE
  5
AE2
330
1E
100
AcDbEntity
  8
PEG-L150AG
100
AcDbLine
 10
95.40476190476182
 20
191.8333333333331
 30
0.0
 11
95.40476190476187
 21
202.4999999999998
 31
0.0
  0
LINE
  5
AE3
330
1E
100
AcDbEntity
  8
PEG-L150AG
100
AcDbLine
 10
96.49999999999996
 20
205.833333333333
 30
0.0
 11
96.49999999999996
 21
191.8333333333331
 31
0.0
  0
LINE
  5
AE4
330
1E
100
AcDbEntity
  8
PEG-L150AG
100
AcDbLine
 10
108.4999999999999
 20
197.1666666666664
 30
0.0
 11
108.4999999999999
 21
205.9999999999996
 31
0.0
  0
LINE
  5
AE5
330
1E
100
AcDbEntity
  8
PEG-L150AG
100
AcDbLine
 10
103.1666666666666
 20
202.4999999999998
 30
0.0
 11
103.1666666666666
 21
207.1666666666664
 31
0.0
  0
LINE
  5
AE6
330
1E
100
AcDbEntity
  8
PEG-L150AG
100
AcDbLine
 10
101.833333333333
 20
200.4999999999999
 30
0.0
 11
101.833333333333
 21
205.833333333333
 31
0.0
  0
LINE
  5
AE7
330
1E
100
AcDbEntity
  8
PEG-L150AG
100
AcDbLine
 10
97.83333333333326
 20
207.1666666666664
 30
0.0
 11
100.4999999999999
 21
207.1666666666664
 31
0.0
  0
LINE
  5
AE8
330
1E
100
AcDbEntity
  8
PEG-L150AG
100
AcDbLine
 10
95.16666666666663
 20
207.1666666666664
 30
0.0
 11
95.16666666666663
 21
202.4999999999998
 31
0.0
  0
LINE
  5
AE9
330
1E
100
AcDbEntity
  8
PEG-L150AG
100
AcDbLine
 10
153.7504295646783
 20
235.4999999999995
 30
0.0
 11
148.7467272317016
 21
244.1666666666664
 31
0.0
  0
ARC
  5
AEA
330
1E
100
AcDbEntity
  8
PEG-L150AG
100
AcDbCircle
 10
148.5542771419718
 20
243.1666666666663
 30
0.0
 40
1.999999999999998
100
AcDbArc
 50
29.99999999999998
 51
90.0
  0
LINE
  5
AEB
330
1E
100
AcDbEntity
  8
PEG-L150AG
100
AcDbLine
 10
207.1666666666664
 20
234.4999999999997
 30
0.0
 11
183.8333333333332
 21
234.4999999999997
 31
0.0
  0
LINE
  5
AEC
330
1E
100
AcDbEntity
  8
PEG-L150AG
100
AcDbLine
 10
207.1666666666664
 20
236.4999999999997
 30
0.0
 11
183.8333333333332
 21
236.4999999999997
 31
0.0
  0
LINE
  5
AED
330
1E
100
AcDbEntity
  8
PEG-L150AG
100
AcDbLine
 10
188.4999999999998
 20
239.8333333333329
 30
0.0
 11
188.4999999999998
 21
230.9999999999998
 31
0.0
  0
LINE
  5
AEE
330
1E
100
AcDbEntity
  8
PEG-L150AG
100
AcDbLine
 10
209.583333333333
 20
226.4999999999997
 30
0.0
 11
198.6666666666664
 21
226.4999999999997
 31
0.0
  0
LINE
  5
AEF
330
1E
100
AcDbEntity
  8
PEG-L150AG
100
AcDbLine
 10
209.583333333333
 20
210.4999999999999
 30
0.0
 11
198.6666666666664
 21
210.4999999999999
 31
0.0
  0
ARC
  5
AF0
330
1E
100
AcDbEntity
  8
PEG-L150AG
100
AcDbCircle
 10
161.8333333333332
 20
240.1666666666665
 30
0.0
 40
9.333333333333326
100
AcDbArc
 50
210.0
 51
231.4571942626084
  0
ARC
  5
AF1
330
1E
100
AcDbEntity
  8
PEG-L150AG
100
AcDbCircle
 10
161.8333333333332
 20
218.4999999999998
 30
0.0
 40
1.333333333333332
100
AcDbArc
 50
7.125016348901787
 51
270.0
  0
CIRCLE
  5
AF2
330
1E
100
AcDbEntity
  8
PEG-L150AG
100
AcDbCircle
 10
161.8333333333332
 20
218.4999999999998
 30
0.0
 40
0.8333333333333325
  0
ARC
  5
AF3
330
1E
100
AcDbEntity
  8
PEG-L150AG
100
AcDbCircle
 10
161.8333333333332
 20
240.1666666666665
 30
0.0
 40
7.999999999999992
100
AcDbArc
 50
209.9999999999999
 51
245.8531520034982
  0
ARC
  5
AF4
330
1E
100
AcDbEntity
  8
PEG-L150AG
100
AcDbCircle
 10
176.6519902425334
 20
243.1666666666663
 30
0.0
 40
1.999999999999998
100
AcDbArc
 50
90.0
 51
150.0
  0
ARC
  5
AF5
330
1E
100
AcDbEntity
  8
PEG-L150AG
100
AcDbCircle
 10
175.1123895246945
 20
243.1666666666663
 30
0.0
 40
1.999999999999998
100
AcDbArc
 50
90.0
 51
150.0
  0
LINE
  5
AF6
330
1E
100
AcDbEntity
  8
PEG-L150AG
100
AcDbLine
 10
169.9162371019879
 20
235.4999999999995
 30
0.0
 11
174.9199394349646
 21
244.1666666666664
 31
0.0
  0
LINE
  5
AF7
330
1E
100
AcDbEntity
  8
PEG-L150AG
100
AcDbLine
 10
168.7615365636085
 20
236.1666666666665
 30
0.0
 11
173.3803387171255
 21
244.1666666666664
 31
0.0
  0
LINE
  5
AF8
330
1E
100
AcDbEntity
  8
PEG-L150AG
100
AcDbLine
 10
161.8333333333332
 20
234.6666666666664
 30
0.0
 11
161.8333333333332
 21
245.6666666666663
 31
0.0
  0
CIRCLE
  5
AF9
330
1E
100
AcDbEntity
  8
PEG-L150AG
100
AcDbCircle
 10
161.8333333333332
 20
240.1666666666665
 30
0.0
 40
1.999999999999998
  0
LINE
  5
AFA
330
1E
100
AcDbEntity
  8
PEG-L150AG
100
AcDbLine
 10
154.9051301030577
 20
236.1666666666665
 30
0.0
 11
150.2863279495404
 21
244.1666666666664
 31
0.0
  0
LINE
  5
AFB
330
1E
100
AcDbEntity
  8
PEG-L150AG
100
AcDbLine
 10
125.1666666666664
 20
236.4999999999997
 30
0.0
 11
101.833333333333
 21
236.4999999999997
 31
0.0
  0
LINE
  5
AFC
330
1E
100
AcDbEntity
  8
PEG-L150AG
100
AcDbLine
 10
125.1666666666664
 20
234.4999999999997
 30
0.0
 11
101.833333333333
 21
234.4999999999997
 31
0.0
  0
ARC
  5
AFD
330
1E
100
AcDbEntity
  8
PEG-L150AG
100
AcDbCircle
 10
147.0146764241326
 20
243.1666666666663
 30
0.0
 40
1.999999999999998
100
AcDbArc
 50
29.99999999999998
 51
90.0
  0
LINE
  5
AFE
330
1E
100
AcDbEntity
  8
PEG-L150AG
100
AcDbLine
 10
95.16666666666663
 20
229.8333333333331
 30
0.0
 11
95.16666666666663
 21
234.4999999999997
 31
0.0
  0
LINE
  5
AFF
330
1E
100
AcDbEntity
  8
PEG-L150AG
100
AcDbLine
 10
103.1666666666666
 20
229.8333333333331
 30
0.0
 11
103.1666666666666
 21
234.4999999999997
 31
0.0
  0
LINE
  5
B00
330
1E
100
AcDbEntity
  8
PEG-L150AG
100
AcDbLine
 10
108.4999999999999
 20
239.8333333333329
 30
0.0
 11
108.4999999999999
 21
230.9999999999998
 31
0.0
  0
LINE
  5
B01
330
1E
100
AcDbEntity
  8
PEG-L150AG
100
AcDbLine
 10
96.49999999999996
 20
231.1666666666663
 30
0.0
 11
96.49999999999996
 21
245.1666666666663
 31
0.0
  0
LINE
  5
B02
330
1E
100
AcDbEntity
  8
PEG-L150AG
100
AcDbLine
 10
101.833333333333
 20
231.1666666666663
 30
0.0
 11
101.833333333333
 21
236.4999999999997
 31
0.0
  0
LINE
  5
B03
330
1E
100
AcDbEntity
  8
PEG-L150AG
100
AcDbLine
 10
96.49999999999996
 20
208.4999999999998
 30
0.0
 11
101.833333333333
 21
208.4999999999998
 31
0.0
  0
ARC
  5
B04
330
1E
100
AcDbEntity
  8
PEG-L150AG
100
AcDbCircle
 10
101.833333333333
 20
229.8333333333331
 30
0.0
 40
1.333333333333332
100
AcDbArc
 50
270.0
 51
0.0
  0
LINE
  5
B05
330
1E
100
AcDbEntity
  8
PEG-L150AG
100
AcDbLine
 10
96.49999999999996
 20
228.4999999999997
 30
0.0
 11
101.833333333333
 21
228.4999999999997
 31
0.0
  0
LINE
  5
B06
330
1E
100
AcDbEntity
  8
PEG-L150AG
100
AcDbLine
 10
97.83333333333326
 20
229.8333333333331
 30
0.0
 11
100.4999999999999
 21
229.8333333333331
 31
0.0
  0
ARC
  5
B07
330
1E
100
AcDbEntity
  8
PEG-L150AG
100
AcDbCircle
 10
100.4999999999999
 20
231.1666666666663
 30
0.0
 40
1.333333333333332
100
AcDbArc
 50
270.0
 51
0.0
  0
ARC
  5
B08
330
1E
100
AcDbEntity
  8
PEG-L150AG
100
AcDbCircle
 10
97.83333333333326
 20
231.1666666666663
 30
0.0
 40
1.333333333333332
100
AcDbArc
 50
180.0
 51
270.0
  0
ARC
  5
B09
330
1E
100
AcDbEntity
  8
PEG-L150AG
100
AcDbCircle
 10
96.49999999999996
 20
229.8333333333331
 30
0.0
 40
1.333333333333332
100
AcDbArc
 50
180.0
 51
270.0
  0
LINE
  5
B0C
330
1E
100
AcDbEntity
  8
PEG-L150AG
100
AcDbLine
 10
95.40476190476182
 20
234.4999999999997
 30
0.0
 11
95.40476190476182
 21
245.1666666666663
 31
0.0
  0
LINE
  5
B0D
330
1E
100
AcDbEntity
  8
PEG-L150AG
100
AcDbLine
 10
28.5
 20
191.8333333333331
 30
0.0
 11
28.5
 21
245.1666666666663
 31
0.0
  0
LINE
  5
B0E
330
1E
100
AcDbEntity
  8
PEG-L150AG
100
AcDbLine
 10
43.16666666666665
 20
65.33333333333337
 30
0.0
 11
28.5
 21
65.33333333333337
 31
0.0
  0
LINE
  5
B0F
330
1E
100
AcDbEntity
  8
PEG-L150AG
100
AcDbLine
 10
48.5
 20
60.0
 30
0.0
 11
28.5
 21
60.0
 31
0.0
  0
LINE
  5
B10
330
1E
100
AcDbEntity
  8
PEG-L150AG
100
AcDbLine
 10
43.16666666666665
 20
65.33333333333337
 30
0.0
 11
45.16666666666664
 21
78.33333333333332
 31
0.0
  0
ARC
  5
B11
330
1E
100
AcDbEntity
  8
PEG-L150AG
100
AcDbCircle
 10
49.83333333333331
 20
60.0
 30
0.0
 40
1.333333333333332
100
AcDbArc
 50
90.0
 51
180.0
  0
LINE
  5
B12
330
1E
100
AcDbEntity
  8
PEG-L150AG
100
AcDbLine
 10
37.16666666666665
 20
65.33333333333337
 30
0.0
 11
37.16666666666665
 21
60.0
 31
0.0
  0
LINE
  5
B13
330
1E
100
AcDbEntity
  8
PEG-L150AG
100
AcDbLine
 10
38.5
 20
79.99999999999999
 30
0.0
 11
38.5
 21
73.33333333333332
 31
0.0
  0
LINE
  5
B14
330
1E
100
AcDbEntity
  8
PEG-L150AG
100
AcDbLine
 10
42.4556619540074
 20
79.99999999999999
 30
0.0
 11
42.4556619540074
 21
78.33333333333332
 31
0.0
  0
LINE
  5
B15
330
1E
100
AcDbEntity
  8
PEG-L150AG
100
AcDbLine
 10
28.5
 20
60.0
 30
0.0
 11
28.5
 21
79.99999999999999
 31
0.0
  0
LINE
  5
B16
330
1E
100
AcDbEntity
  8
PEG-L150AG
100
AcDbLine
 10
33.16666666666665
 20
65.33333333333337
 30
0.0
 11
33.16666666666665
 21
60.0
 31
0.0
  0
LINE
  5
B19
330
1E
100
AcDbEntity
  8
PEG-L150AG
100
AcDbLine
 10
288.9420569635025
 20
118.6666666666666
 30
0.0
 11
294.833333333333
 21
118.6666666666666
 31
0.0
  0
LINE
  5
B1A
330
1E
100
AcDbEntity
  8
PEG-L150AG
100
AcDbLine
 10
338.9999999999997
 20
88.66666666666665
 30
0.0
 11
331.1666666666661
 21
88.66666666666665
 31
0.0
  0
LINE
  5
B1B
330
1E
100
AcDbEntity
  8
PEG-L150AG
100
AcDbLine
 10
54.08418036752754
 20
118.6666666666666
 30
0.0
 11
86.0371454603141
 21
118.6666666666666
 31
0.0
  0
LINE
  5
B1C
330
1E
100
AcDbEntity
  8
PEG-L150AG
100
AcDbLine
 10
95.09872388388634
 20
88.66666666666665
 30
0.0
 11
28.94162808807178
 21
88.66666666666665
 31
0.0
  0
LINE
  5
B1D
330
1E
100
AcDbEntity
  8
PEG-L150AG
100
AcDbLine
 10
95.09872388388634
 20
78.66666666666666
 30
0.0
 11
28.43205721721975
 21
78.66666666666666
 31
0.0
  0
LINE
  5
B1F
330
1E
100
AcDbEntity
  8
PEG-L150AG
100
AcDbLine
 10
95.09872388388634
 20
88.66666666666665
 30
0.0
 11
87.32504656203285
 21
117.6784253934699
 31
0.0
  0
LINE
  5
B20
330
1E
100
AcDbEntity
  8
PEG-L150AG
100
AcDbLine
 10
95.09872388388634
 20
88.66666666666665
 30
0.0
 11
95.09872388388634
 21
78.66666666666666
 31
0.0
  0
ARC
  5
B21
330
1E
100
AcDbEntity
  8
PEG-L150AG
100
AcDbCircle
 10
86.0371454603141
 20
117.3333333333332
 30
0.0
 40
1.333333333333332
100
AcDbArc
 50
14.99999999999998
 51
89.99999999999998
  0
LINE
  5
B22
330
1E
100
AcDbEntity
  8
PEG-L150AG
100
AcDbLine
 10
28.43205721721975
 20
78.66666666666666
 30
0.0
 11
29.72848484802102
 21
104.1082235718638
 31
0.0
  0
LINE
  5
B24
330
1E
100
AcDbEntity
  8
PEG-L150AG
100
AcDbLine
 10
53.4175137008609
 20
118.4880338717124
 30
0.0
 11
30.39342379548986
 21
105.1950693670004
 31
0.0
  0
ARC
  5
B25
330
1E
100
AcDbEntity
  8
PEG-L150AG
100
AcDbCircle
 10
54.08418036752754
 20
117.3333333333333
 30
0.0
 40
1.333333333333332
100
AcDbArc
 50
90.0
 51
119.9999999999999
  0
ARC
  5
B26
330
1E
100
AcDbEntity
  8
PEG-L150AG
100
AcDbCircle
 10
31.06009046215651
 20
104.0403688286211
 30
0.0
 40
1.333333333333332
100
AcDbArc
 50
119.9999999999999
 51
177.0828971016408
  0
LINE
  5
B27
330
1E
100
AcDbEntity
  8
PEG-L150AG
100
AcDbLine
 10
337.0566281117851
 20
117.3925341514941
 30
0.0
 11
338.3050192774401
 21
89.30373292425283
 31
0.0
  0
LINE
  5
B28
330
1E
100
AcDbEntity
  8
PEG-L150AG
100
AcDbLine
 10
338.9999999999997
 20
88.66666666666665
 30
0.0
 11
338.9999999999997
 21
78.66666666666666
 31
0.0
  0
LINE
  5
B29
330
1E
100
AcDbEntity
  8
PEG-L150AG
100
AcDbLine
 10
328.333333333333
 20
78.66666666666666
 30
0.0
 11
325.6666666666664
 21
78.66666666666666
 31
0.0
  0
LINE
  5
B2A
330
1E
100
AcDbEntity
  8
PEG-L150AG
100
AcDbLine
 10
328.333333333333
 20
78.66666666666666
 30
0.0
 11
328.333333333333
 21
79.99999999999999
 31
0.0
  0
ARC
  5
B2B
330
1E
100
AcDbEntity
  8
PEG-L150AG
100
AcDbCircle
 10
338.9710284817511
 20
89.33333333333331
 30
0.0
 40
0.6666666666666661
100
AcDbArc
 50
182.544804379813
 51
270.0
  0
ARC
  5
B2C
330
1E
100
AcDbEntity
  8
PEG-L150AG
100
AcDbCircle
 10
335.7246097031633
 20
117.3333333333332
 30
0.0
 40
1.333333333333332
100
AcDbArc
 50
2.544804379813095
 51
90.0
  0
LINE
  5
B2D
330
1E
100
AcDbEntity
  8
PEG-L150AG
100
AcDbLine
 10
287.6100385548808
 20
117.3925341514941
 30
0.0
 11
286.3616473892257
 21
89.30373292425283
 31
0.0
  0
LINE
  5
B2E
330
1E
100
AcDbEntity
  8
PEG-L150AG
100
AcDbLine
 10
298.9999999999998
 20
78.66666666666666
 30
0.0
 11
296.333333333333
 21
78.66666666666666
 31
0.0
  0
LINE
  5
B2F
330
1E
100
AcDbEntity
  8
PEG-L150AG
100
AcDbLine
 10
296.333333333333
 20
78.66666666666666
 30
0.0
 11
296.333333333333
 21
79.99999999999999
 31
0.0
  0
LINE
  5
B30
330
1E
100
AcDbEntity
  8
PEG-L150AG
100
AcDbLine
 10
285.6666666666664
 20
88.66666666666665
 30
0.0
 11
285.6666666666664
 21
78.66666666666666
 31
0.0
  0
ARC
  5
B31
330
1E
100
AcDbEntity
  8
PEG-L150AG
100
AcDbCircle
 10
285.695638184915
 20
89.33333333333331
 30
0.0
 40
0.6666666666666661
100
AcDbArc
 50
270.0
 51
357.4551956201867
  0
ARC
  5
B32
330
1E
100
AcDbEntity
  8
PEG-L150AG
100
AcDbCircle
 10
288.9420569635025
 20
117.3333333333332
 30
0.0
 40
1.333333333333332
100
AcDbArc
 50
90.0
 51
177.4551956201869
  0
LINE
  5
B33
330
1E
100
AcDbEntity
  8
PEG-L150AG
100
AcDbLine
 10
110.2771774580924
 20
206.0333333333332
 30
0.0
 11
110.2771774580924
 21
215.1999999999998
 31
0.0
  0
LINE
  5
B34
330
1E
100
AcDbEntity
  8
PEG-L150AG
100
AcDbLine
 10
108.5265760675423
 20
204.1999999999998
 30
0.0
 11
108.5265760675423
 21
232.8666666666664
 31
0.0
  0
LINE
  5
B35
330
1E
100
AcDbEntity
  8
PEG-L150AG
100
AcDbLine
 10
195.4410284879199
 20
206.4270908432824
 30
0.0
 11
195.4410284879199
 21
214.561504798777
 31
0.0
  0
LINE
  5
B36
330
1E
100
AcDbEntity
  8
PEG-L150AG
100
AcDbLine
 10
194.3636288018273
 20
204.1999999999998
 30
0.0
 11
194.3636288018273
 21
232.8666666666664
 31
0.0
  0
LINE
  5
B37
330
1E
100
AcDbEntity
  8
PEG-L150AG
100
AcDbLine
 10
196.47630466833
 20
204.1999999999998
 30
0.0
 11
196.47630466833
 21
232.8666666666664
 31
0.0
  0
LINE
  5
B38
330
1E
100
AcDbEntity
  8
PEG-L150AG
100
AcDbLine
 10
193.8333333333332
 20
204.1999999999998
 30
0.0
 11
193.8333333333332
 21
232.8666666666664
 31
0.0
  0
LINE
  5
B3A
330
1E
100
AcDbEntity
  8
PEG-L150AG
100
AcDbLine
 10
108.5265760675423
 20
204.1999999999998
 30
0.0
 11
196.47630466833
 21
204.1999999999998
 31
0.0
  0
LINE
  5
B3B
330
1E
100
AcDbEntity
  8
PEG-L150AG
100
AcDbLine
 10
193.8333333333332
 20
130.6666666666665
 30
0.0
 11
108.5265760675423
 21
130.6666666666665
 31
0.0
  0
LINE
  5
B3C
330
1E
100
AcDbEntity
  8
PEG-L150AG
100
AcDbLine
 10
180.1666666666664
 20
130.6666666666665
 30
0.0
 11
180.1666666666664
 21
128.6666666666665
 31
0.0
  0
LINE
  5
B3D
330
1E
100
AcDbEntity
  8
PEG-L150AG
100
AcDbLine
 10
179.6666666666664
 20
130.6666666666665
 30
0.0
 11
179.6666666666664
 21
128.6666666666665
 31
0.0
  0
LINE
  5
B3E
330
1E
100
AcDbEntity
  8
PEG-L150AG
100
AcDbLine
 10
194.4057523075098
 20
128.5303699718228
 30
0.0
 11
193.8333333333332
 21
130.6666666666665
 31
0.0
  0
LINE
  5
B47
330
1E
100
AcDbEntity
  8
PEG-L150AG
100
AcDbLine
 10
123.9999999999999
 20
130.6666666666665
 30
0.0
 11
123.9999999999999
 21
128.6666666666665
 31
0.0
  0
LINE
  5
B48
330
1E
100
AcDbEntity
  8
PEG-L150AG
100
AcDbLine
 10
123.4999999999997
 20
130.6666666666665
 30
0.0
 11
123.4999999999997
 21
128.6666666666665
 31
0.0
  0
LINE
  5
B49
330
1E
100
AcDbEntity
  8
PEG-L150AG
100
AcDbLine
 10
125.1666666666664
 20
133.6666666666666
 30
0.0
 11
125.1666666666664
 21
128.6666666666665
 31
0.0
  0
LINE
  5
B4A
330
1E
100
AcDbEntity
  8
PEG-L150AG
100
AcDbLine
 10
151.833333333333
 20
133.6666666666666
 30
0.0
 11
151.833333333333
 21
128.6666666666665
 31
0.0
  0
LINE
  5
B4B
330
1E
100
AcDbEntity
  8
PEG-L150AG
100
AcDbLine
 10
152.9999999999998
 20
130.6666666666665
 30
0.0
 11
152.9999999999998
 21
128.6666666666665
 31
0.0
  0
LINE
  5
B4C
330
1E
100
AcDbEntity
  8
PEG-L150AG
100
AcDbLine
 10
153.4999999999998
 20
130.6666666666665
 30
0.0
 11
153.4999999999996
 21
128.6666666666665
 31
0.0
  0
LINE
  5
B4D
330
1E
100
AcDbEntity
  8
PEG-L150AG
100
AcDbLine
 10
150.6666666666665
 20
130.6666666666665
 30
0.0
 11
150.6666666666664
 21
128.6666666666665
 31
0.0
  0
LINE
  5
B4E
330
1E
100
AcDbEntity
  8
PEG-L150AG
100
AcDbLine
 10
150.1666666666665
 20
130.6666666666665
 30
0.0
 11
150.1666666666665
 21
128.6666666666665
 31
0.0
  0
LINE
  5
B4F
330
1E
100
AcDbEntity
  8
PEG-L150AG
100
AcDbLine
 10
126.833333333333
 20
130.6666666666665
 30
0.0
 11
126.833333333333
 21
128.6666666666665
 31
0.0
  0
LINE
  5
B50
330
1E
100
AcDbEntity
  8
PEG-L150AG
100
AcDbLine
 10
126.3333333333332
 20
130.6666666666665
 30
0.0
 11
126.333333333333
 21
128.6666666666665
 31
0.0
  0
LINE
  5
B51
330
1E
100
AcDbEntity
  8
PEG-L150AG
100
AcDbLine
 10
176.8333333333329
 20
130.6666666666665
 30
0.0
 11
176.8333333333329
 21
128.6666666666665
 31
0.0
  0
LINE
  5
B52
330
1E
100
AcDbEntity
  8
PEG-L150AG
100
AcDbLine
 10
178.4999999999998
 20
133.6666666666666
 30
0.0
 11
178.4999999999998
 21
128.6666666666665
 31
0.0
  0
LINE
  5
B53
330
1E
100
AcDbEntity
  8
PEG-L150AG
100
AcDbLine
 10
177.3333333333332
 20
130.6666666666665
 30
0.0
 11
177.333333333333
 21
128.6666666666665
 31
0.0
  0
LINE
  5
B61
330
1E
100
AcDbEntity
  8
PEG-L150AG
100
AcDbLine
 10
119.1515172552189
 20
127.719027725811
 30
0.0
 11
117.8951942686637
 21
127.900035086336
 31
0.0
  0
CIRCLE
  5
B63
330
1E
100
AcDbEntity
  8
PEG-L150AG
100
AcDbCircle
 10
178.4999999999998
 20
218.5333333333332
 30
0.0
 40
1.166666666666665
  0
ARC
  5
B64
330
1E
100
AcDbEntity
  8
PEG-L150AG
100
AcDbCircle
 10
178.4999999999998
 20
218.5333333333332
 30
0.0
 40
1.666666666666665
100
AcDbArc
 50
2.636388936377619
 51
269.615143788745
  0
LINE
  5
B65
330
1E
100
AcDbEntity
  8
PEG-L150AG
100
AcDbLine
 10
108.5265760675423
 20
232.8666666666664
 30
0.0
 11
196.47630466833
 21
232.8666666666664
 31
0.0
  0
LINE
  5
B66
330
1E
100
AcDbEntity
  8
PEG-L150AG
100
AcDbLine
 10
199.7153903091733
 20
226.5333333333332
 30
0.0
 11
191.3820569758399
 21
226.5333333333332
 31
0.0
  0
LINE
  5
B67
330
1E
100
AcDbEntity
  8
PEG-L150AG
100
AcDbLine
 10
199.7153903091733
 20
210.5333333333331
 30
0.0
 11
191.3820569758399
 21
210.5333333333331
 31
0.0
  0
LINE
  5
B68
330
1E
100
AcDbEntity
  8
PEG-L150AG
100
AcDbLine
 10
195.4410284879199
 20
222.2093025202779
 30
0.0
 11
195.4410284879199
 21
230.9848515719594
 31
0.0
  0
LINE
  5
B69
330
1E
100
AcDbEntity
  8
PEG-L150AG
100
AcDbLine
 10
178.4999999999998
 20
222.5333333333332
 30
0.0
 11
178.4999999999998
 21
214.8666666666664
 31
0.0
  0
LINE
  5
B6A
330
1E
100
AcDbEntity
  8
PEG-L150AG
100
AcDbLine
 10
151.833333333333
 20
222.5333333333332
 30
0.0
 11
151.833333333333
 21
214.8666666666664
 31
0.0
  0
CIRCLE
  5
B6B
330
1E
100
AcDbEntity
  8
PEG-L150AG
100
AcDbCircle
 10
151.833333333333
 20
218.5333333333332
 30
0.0
 40
1.166666666666665
  0
ARC
  5
B6C
330
1E
100
AcDbEntity
  8
PEG-L150AG
100
AcDbCircle
 10
151.833333333333
 20
218.5333333333332
 30
0.0
 40
1.666666666666665
100
AcDbArc
 50
2.636388936377619
 51
269.615143788745
  0
LINE
  5
B6D
330
1E
100
AcDbEntity
  8
PEG-L150AG
100
AcDbLine
 10
125.1666666666664
 20
222.5333333333332
 30
0.0
 11
125.1666666666664
 21
214.8666666666664
 31
0.0
  0
ARC
  5
B6E
330
1E
100
AcDbEntity
  8
PEG-L150AG
100
AcDbCircle
 10
125.1666666666664
 20
218.5333333333332
 30
0.0
 40
1.666666666666665
100
AcDbArc
 50
2.636388936377619
 51
269.615143788745
  0
CIRCLE
  5
B6F
330
1E
100
AcDbEntity
  8
PEG-L150AG
100
AcDbCircle
 10
125.1666666666664
 20
218.5333333333332
 30
0.0
 40
1.166666666666665
  0
LINE
  5
B70
330
1E
100
AcDbEntity
  8
PEG-L150AG
100
AcDbLine
 10
114.38205697584
 20
210.5333333333331
 30
0.0
 11
106.0487236425067
 21
210.5333333333331
 31
0.0
  0
LINE
  5
B71
330
1E
100
AcDbEntity
  8
PEG-L150AG
100
AcDbLine
 10
114.38205697584
 20
226.5333333333332
 30
0.0
 11
106.0487236425067
 21
226.5333333333332
 31
0.0
  0
LINE
  5
B72
330
1E
100
AcDbEntity
  8
PEG-L150AG
100
AcDbLine
 10
110.2771774580924
 20
222.6999999999998
 30
0.0
 11
110.2771774580924
 21
230.5333333333332
 31
0.0
  0
LINE
  5
B73
330
1E
100
AcDbEntity
  8
PEG-L150AG
100
AcDbLine
 10
185.1666666666664
 20
232.8666666666664
 30
0.0
 11
185.1666666666664
 21
234.4999999999997
 31
0.0
  0
LINE
  5
B74
330
1E
100
AcDbEntity
  8
PEG-L150AG
100
AcDbLine
 10
183.8333333333332
 20
232.8666666666664
 30
0.0
 11
183.8333333333332
 21
236.4999999999997
 31
0.0
  0
LINE
  5
B75
330
1E
100
AcDbEntity
  8
PEG-L150AG
100
AcDbLine
 10
125.1666666666664
 20
232.8666666666664
 30
0.0
 11
125.1666666666664
 21
236.4999999999997
 31
0.0
  0
LINE
  5
B76
330
1E
100
AcDbEntity
  8
PEG-L150AG
100
AcDbLine
 10
123.1666666666665
 20
232.8666666666664
 30
0.0
 11
123.1666666666665
 21
234.4999999999997
 31
0.0
  0
LINE
  5
B77
330
1E
100
AcDbEntity
  8
PEG-L150AG
100
AcDbLine
 10
121.040936406713
 20
232.8666666666664
 30
0.0
 11
121.040936406713
 21
234.4999999999997
 31
0.0
  0
ARC
  5
B78
330
1E
100
AcDbEntity
  8
PEG-L150AG
100
AcDbCircle
 10
161.8333333333332
 20
196.833333333333
 30
0.0
 40
9.333333333333326
100
AcDbArc
 50
127.8811895951947
 51
149.9999999999999
  0
ARC
  5
B79
330
1E
100
AcDbEntity
  8
PEG-L150AG
100
AcDbCircle
 10
161.8333333333332
 20
196.833333333333
 30
0.0
 40
7.999999999999992
100
AcDbArc
 50
112.9517847802024
 51
150.0
  0
ARC
  5
B7A
330
1E
100
AcDbEntity
  8
PEG-L150AG
100
AcDbCircle
 10
161.8333333333332
 20
240.1666666666665
 30
0.0
 40
9.333333333333326
100
AcDbArc
 50
308.5428057373915
 51
330.0
  0
ARC
  5
B7B
330
1E
100
AcDbEntity
  8
PEG-L150AG
100
AcDbCircle
 10
161.8333333333332
 20
240.1666666666665
 30
0.0
 40
7.999999999999992
100
AcDbArc
 50
294.1468479965017
 51
330.0
  0
LINE
  5
B80
330
1E
100
AcDbEntity
  8
PEG-L150AG
100
AcDbLine
 10
298.9999999999998
 20
121.171172206354
 30
0.0
 11
325.6666666666664
 21
121.171172206354
 31
0.0
  0
LINE
  5
B81
330
1E
100
AcDbEntity
  8
PEG-L150AG
100
AcDbLine
 10
298.9999999999998
 20
130.3189865028334
 30
0.0
 11
325.6666666666664
 21
130.3189865028334
 31
0.0
  0
LINE
  5
B82
330
1E
100
AcDbEntity
  8
PEG-L150AG
100
AcDbLine
 10
325.6666666666664
 20
121.171172206354
 30
0.0
 11
325.6666666666664
 21
130.3189865028334
 31
0.0
  0
LINE
  5
B83
330
1E
100
AcDbEntity
  8
PEG-L150AG
100
AcDbLine
 10
298.9999999999998
 20
130.3189865028334
 30
0.0
 11
298.9999999999998
 21
121.171172206354
 31
0.0
  0
LINE
  5
B84
330
1E
100
AcDbEntity
  8
PEG-L150AG
100
AcDbLine
 10
304.333333333333
 20
130.9856531695001
 30
0.0
 11
304.333333333333
 21
122.283646794709
 31
0.0
  0
LINE
  5
B85
330
1E
100
AcDbEntity
  8
PEG-L150AG
100
AcDbLine
 10
320.333333333333
 20
122.283646794709
 30
0.0
 11
320.333333333333
 21
130.9856531695001
 31
0.0
  0
LINE
  5
B8A
330
1E
100
AcDbEntity
  8
PEG-L150AG
100
AcDbLine
 10
285.6666666666664
 20
60.0
 30
0.0
 11
338.9999999999997
 21
60.0
 31
0.0
  0
LINE
  5
B8B
330
1E
100
AcDbEntity
  8
PEG-L150AG
100
AcDbLine
 10
338.9999999999997
 20
60.0
 30
0.0
 11
338.9999999999997
 21
70.66666666666669
 31
0.0
  0
LINE
  5
B8C
330
1E
100
AcDbEntity
  8
PEG-L150AG
100
AcDbLine
 10
285.6666666666664
 20
60.0
 30
0.0
 11
285.6666666666664
 21
70.66666666666669
 31
0.0
  0
LINE
  5
B8D
330
1E
100
AcDbEntity
  8
PEG-L150AG
100
AcDbLine
 10
285.6666666666664
 20
70.66666666666669
 30
0.0
 11
338.9999999999997
 21
70.66666666666669
 31
0.0
  0
LINE
  5
B8E
330
1E
100
AcDbEntity
  8
PEG-L150AG
100
AcDbLine
 10
290.6666666666664
 20
47.0
 30
0.0
 11
290.6666666666664
 21
71.25
 31
0.0
  0
LINE
  5
B8F
330
1E
100
AcDbEntity
  8
PEG-L150AG
100
AcDbLine
 10
298.8126608775682
 20
66.50128702054771
 30
0.0
 11
299.9999999999997
 21
70.66666666666666
 31
0.0
  0
LINE
  5
B90
330
1E
100
AcDbEntity
  8
PEG-L150AG
100
AcDbLine
 10
325.8540057890978
 20
66.50128702054771
 30
0.0
 11
324.6666666666663
 21
70.66666666666666
 31
0.0
  0
ARC
  5
B91
330
1E
100
AcDbEntity
  8
PEG-L150AG
100
AcDbCircle
 10
327.1770429580494
 20
66.66666666666666
 30
0.0
 40
1.333333333333332
100
AcDbArc
 50
187.1250163489015
 51
270.0
  0
ARC
  5
B92
330
1E
100
AcDbEntity
  8
PEG-L150AG
100
AcDbCircle
 10
297.4896237086166
 20
66.66666666666666
 30
0.0
 40
1.333333333333332
100
AcDbArc
 50
270.0
 51
352.874983651098
  0
LINE
  5
B93
330
1E
100
AcDbEntity
  8
PEG-L150AG
100
AcDbLine
 10
294.3333333333331
 20
72.06666666666662
 30
0.0
 11
330.3333333333331
 21
72.06666666666662
 31
0.0
  0
LINE
  5
B94
330
1E
100
AcDbEntity
  8
PEG-L150AG
100
AcDbLine
 10
285.6666666666664
 20
79.99999999999999
 30
0.0
 11
294.833333333333
 21
79.99999999999999
 31
0.0
  0
LINE
  5
B95
330
1E
100
AcDbEntity
  8
PEG-L150AG
100
AcDbLine
 10
338.9999999999997
 20
70.66666666666669
 30
0.0
 11
338.9999999999997
 21
78.66666666666666
 31
0.0
  0
LINE
  5
B96
330
1E
100
AcDbEntity
  8
PEG-L150AG
100
AcDbLine
 10
285.6666666666664
 20
70.66666666666666
 30
0.0
 11
285.6666666666664
 21
78.66666666666666
 31
0.0
  0
LINE
  5
B97
330
1E
100
AcDbEntity
  8
PEG-L150AG
100
AcDbLine
 10
285.6666666666664
 20
65.33333333333333
 30
0.0
 11
297.4896237086166
 21
65.33333333333333
 31
0.0
  0
LINE
  5
B98
330
1E
100
AcDbEntity
  8
PEG-L150AG
100
AcDbLine
 10
338.9999999999997
 20
65.33333333333333
 30
0.0
 11
327.1770429580495
 21
65.33333333333333
 31
0.0
  0
LINE
  5
B99
330
1E
100
AcDbEntity
  8
PEG-L150AG
100
AcDbLine
 10
30.16666666666665
 20
51.5
 30
0.0
 11
65.49999999999997
 21
51.5
 31
0.0
  0
LINE
  5
B9A
330
1E
100
AcDbEntity
  8
PEG-L150AG
100
AcDbLine
 10
30.16666666666665
 20
50.0
 30
0.0
 11
65.49999999999997
 21
50.0
 31
0.0
  0
ARC
  5
B9B
330
1E
100
AcDbEntity
  8
PEG-L150AG
100
AcDbCircle
 10
40.16666666666664
 20
52.16666666666668
 30
0.0
 40
0.6666666666666661
100
AcDbArc
 50
180.0
 51
270.0
  0
LINE
  5
B9C
330
1E
100
AcDbEntity
  8
PEG-L150AG
100
AcDbLine
 10
39.5
 20
52.16666666666668
 30
0.0
 11
39.5
 21
58.0
 31
0.0
  0
LINE
  5
B9D
330
1E
100
AcDbEntity
  8
PEG-L150AG
100
AcDbLine
 10
65.49999999999997
 20
51.5
 30
0.0
 11
65.49999999999997
 21
50.0
 31
0.0
  0
ARC
  5
B9E
330
1E
100
AcDbEntity
  8
PEG-L150AG
100
AcDbCircle
 10
30.16666666666665
 20
52.16666666666668
 30
0.0
 40
0.6666666666666661
100
AcDbArc
 50
270.0
 51
0.0
  0
LINE
  5
B9F
330
1E
100
AcDbEntity
  8
PEG-L150AG
100
AcDbLine
 10
30.16666666666665
 20
50.0
 30
0.0
 11
30.16666666666665
 21
51.5
 31
0.0
  0
LINE
  5
BA0
330
1E
100
AcDbEntity
  8
PEG-L150AG
100
AcDbLine
 10
30.83333333333333
 20
52.16666666666668
 30
0.0
 11
30.83333333333333
 21
58.0
 31
0.0
  0
LINE
  5
BA1
330
1E
100
AcDbEntity
  8
PEG-L150AG
100
AcDbLine
 10
30.16666666666665
 20
58.66666666666667
 30
0.0
 11
40.16666666666664
 21
58.66666666666667
 31
0.0
  0
LINE
  5
BA2
330
1E
100
AcDbEntity
  8
PEG-L150AG
100
AcDbLine
 10
30.16666666666665
 20
58.66666666666667
 30
0.0
 11
30.16666666666665
 21
60.0
 31
0.0
  0
ARC
  5
BA3
330
1E
100
AcDbEntity
  8
PEG-L150AG
100
AcDbCircle
 10
30.16666666666665
 20
58.0
 30
0.0
 40
0.6666666666666661
100
AcDbArc
 50
0.0
 51
90.0
  0
LINE
  5
BA4
330
1E
100
AcDbEntity
  8
PEG-L150AG
100
AcDbLine
 10
40.16666666666664
 20
58.66666666666667
 30
0.0
 11
40.16666666666664
 21
60.0
 31
0.0
  0
ARC
  5
BA5
330
1E
100
AcDbEntity
  8
PEG-L150AG
100
AcDbCircle
 10
40.16666666666664
 20
58.0
 30
0.0
 40
0.6666666666666661
100
AcDbArc
 50
90.0
 51
180.0
  0
LINE
  5
BA6
330
1E
100
AcDbEntity
  8
PEG-L150AG
100
AcDbLine
 10
35.16666666666665
 20
46.5
 30
0.0
 11
35.16666666666665
 21
72.49999999999999
 31
0.0
  0
LINE
  5
BA7
330
1E
100
AcDbEntity
  8
PEG-L150AG
100
AcDbLine
 10
157.4999999999996
 20
52.16666666666668
 30
0.0
 11
157.4999999999996
 21
58.0
 31
0.0
  0
LINE
  5
BA8
330
1E
100
AcDbEntity
  8
PEG-L150AG
100
AcDbLine
 10
166.8333333333332
 20
50.0
 30
0.0
 11
131.4999999999999
 21
50.0
 31
0.0
  0
LINE
  5
BA9
330
1E
100
AcDbEntity
  8
PEG-L150AG
100
AcDbLine
 10
166.8333333333332
 20
51.5
 30
0.0
 11
131.4999999999999
 21
51.5
 31
0.0
  0
ARC
  5
BAA
330
1E
100
AcDbEntity
  8
PEG-L150AG
100
AcDbCircle
 10
156.8333333333332
 20
52.16666666666668
 30
0.0
 40
0.6666666666666661
100
AcDbArc
 50
270.0
 51
0.0
  0
LINE
  5
BAB
330
1E
100
AcDbEntity
  8
PEG-L150AG
100
AcDbLine
 10
131.4999999999999
 20
51.5
 30
0.0
 11
131.4999999999999
 21
50.0
 31
0.0
  0
LINE
  5
BAC
330
1E
100
AcDbEntity
  8
PEG-L150AG
100
AcDbLine
 10
166.8333333333332
 20
58.66666666666667
 30
0.0
 11
156.8333333333332
 21
58.66666666666667
 31
0.0
  0
ARC
  5
BAD
330
1E
100
AcDbEntity
  8
PEG-L150AG
100
AcDbCircle
 10
156.8333333333332
 20
58.0
 30
0.0
 40
0.6666666666666661
100
AcDbArc
 50
0.0
 51
90.0
  0
LINE
  5
BAE
330
1E
100
AcDbEntity
  8
PEG-L150AG
100
AcDbLine
 10
156.8333333333332
 20
58.66666666666667
 30
0.0
 11
156.8333333333332
 21
60.0
 31
0.0
  0
LINE
  5
BAF
330
1E
100
AcDbEntity
  8
PEG-L150AG
100
AcDbLine
 10
166.1666666666665
 20
52.16666666666668
 30
0.0
 11
166.1666666666665
 21
58.0
 31
0.0
  0
LINE
  5
BB0
330
1E
100
AcDbEntity
  8
PEG-L150AG
100
AcDbLine
 10
166.8333333333332
 20
50.0
 30
0.0
 11
166.8333333333332
 21
51.5
 31
0.0
  0
ARC
  5
BB1
330
1E
100
AcDbEntity
  8
PEG-L150AG
100
AcDbCircle
 10
166.8333333333332
 20
52.16666666666668
 30
0.0
 40
0.6666666666666661
100
AcDbArc
 50
180.0
 51
270.0
  0
ARC
  5
BB2
330
1E
100
AcDbEntity
  8
PEG-L150AG
100
AcDbCircle
 10
166.8333333333332
 20
58.0
 30
0.0
 40
0.6666666666666661
100
AcDbArc
 50
90.0
 51
180.0
  0
LINE
  5
BB3
330
1E
100
AcDbEntity
  8
PEG-L150AG
100
AcDbLine
 10
166.8333333333332
 20
58.66666666666667
 30
0.0
 11
166.8333333333332
 21
60.0
 31
0.0
  0
LINE
  5
BB4
330
1E
100
AcDbEntity
  8
PEG-L150AG
100
AcDbLine
 10
295.6666666666663
 20
51.33333333333334
 30
0.0
 11
260.333333333333
 21
51.33333333333334
 31
0.0
  0
LINE
  5
BB5
330
1E
100
AcDbEntity
  8
PEG-L150AG
100
AcDbLine
 10
295.6666666666663
 20
49.83333333333334
 30
0.0
 11
260.333333333333
 21
49.83333333333334
 31
0.0
  0
LINE
  5
BB6
330
1E
100
AcDbEntity
  8
PEG-L150AG
100
AcDbLine
 10
294.9999999999997
 20
52.0
 30
0.0
 11
294.9999999999997
 21
58.0
 31
0.0
  0
ARC
  5
BB7
330
1E
100
AcDbEntity
  8
PEG-L150AG
100
AcDbCircle
 10
295.6666666666663
 20
52.0
 30
0.0
 40
0.6666666666666661
100
AcDbArc
 50
180.0
 51
270.0
  0
LINE
  5
BB8
330
1E
100
AcDbEntity
  8
PEG-L150AG
100
AcDbLine
 10
295.6666666666663
 20
49.83333333333334
 30
0.0
 11
295.6666666666663
 21
51.33333333333334
 31
0.0
  0
LINE
  5
BB9
330
1E
100
AcDbEntity
  8
PEG-L150AG
100
AcDbLine
 10
295.6666666666663
 20
58.66666666666667
 30
0.0
 11
285.6666666666664
 21
58.66666666666667
 31
0.0
  0
LINE
  5
BBA
330
1E
100
AcDbEntity
  8
PEG-L150AG
100
AcDbLine
 10
295.6666666666663
 20
58.66666666666667
 30
0.0
 11
295.6666666666663
 21
60.0
 31
0.0
  0
ARC
  5
BBB
330
1E
100
AcDbEntity
  8
PEG-L150AG
100
AcDbCircle
 10
295.6666666666663
 20
58.0
 30
0.0
 40
0.6666666666666661
100
AcDbArc
 50
90.0
 51
180.0
  0
LINE
  5
BBC
330
1E
100
AcDbEntity
  8
PEG-L150AG
100
AcDbLine
 10
286.3333333333331
 20
52.0
 30
0.0
 11
286.3333333333331
 21
58.0
 31
0.0
  0
ARC
  5
BBD
330
1E
100
AcDbEntity
  8
PEG-L150AG
100
AcDbCircle
 10
285.6666666666664
 20
58.0
 30
0.0
 40
0.6666666666666661
100
AcDbArc
 50
0.0
 51
90.0
  0
LINE
  5
BBE
330
1E
100
AcDbEntity
  8
PEG-L150AG
100
AcDbLine
 10
285.6666666666664
 20
58.66666666666667
 30
0.0
 11
285.6666666666664
 21
60.0
 31
0.0
  0
LINE
  5
BBF
330
1E
100
AcDbEntity
  8
PEG-L150AG
100
AcDbLine
 10
260.333333333333
 20
51.33333333333334
 30
0.0
 11
260.333333333333
 21
49.83333333333334
 31
0.0
  0
ARC
  5
BC0
330
1E
100
AcDbEntity
  8
PEG-L150AG
100
AcDbCircle
 10
285.6666666666664
 20
52.0
 30
0.0
 40
0.6666666666666661
100
AcDbArc
 50
270.0
 51
0.0
  0
LINE
  5
BC1
330
1E
100
AcDbEntity
  8
PEG-L150AG
100
AcDbLine
 10
328.9999999999997
 20
49.83333333333334
 30
0.0
 11
364.3333333333329
 21
49.83333333333334
 31
0.0
  0
LINE
  5
BC2
330
1E
100
AcDbEntity
  8
PEG-L150AG
100
AcDbLine
 10
328.9999999999997
 20
51.33333333333334
 30
0.0
 11
364.3333333333329
 21
51.33333333333334
 31
0.0
  0
LINE
  5
BC3
330
1E
100
AcDbEntity
  8
PEG-L150AG
100
AcDbLine
 10
329.6666666666664
 20
52.0
 30
0.0
 11
329.6666666666664
 21
58.0
 31
0.0
  0
LINE
  5
BC4
330
1E
100
AcDbEntity
  8
PEG-L150AG
100
AcDbLine
 10
328.9999999999997
 20
49.83333333333334
 30
0.0
 11
328.9999999999997
 21
51.33333333333334
 31
0.0
  0
ARC
  5
BC5
330
1E
100
AcDbEntity
  8
PEG-L150AG
100
AcDbCircle
 10
328.9999999999997
 20
52.0
 30
0.0
 40
0.6666666666666661
100
AcDbArc
 50
270.0
 51
0.0
  0
LINE
  5
BC6
330
1E
100
AcDbEntity
  8
PEG-L150AG
100
AcDbLine
 10
328.9999999999997
 20
58.66666666666667
 30
0.0
 11
338.9999999999997
 21
58.66666666666667
 31
0.0
  0
ARC
  5
BC7
330
1E
100
AcDbEntity
  8
PEG-L150AG
100
AcDbCircle
 10
328.9999999999997
 20
58.0
 30
0.0
 40
0.6666666666666661
100
AcDbArc
 50
0.0
 51
90.0
  0
LINE
  5
BC8
330
1E
100
AcDbEntity
  8
PEG-L150AG
100
AcDbLine
 10
328.9999999999997
 20
58.66666666666667
 30
0.0
 11
328.9999999999997
 21
60.0
 31
0.0
  0
LINE
  5
BC9
330
1E
100
AcDbEntity
  8
PEG-L150AG
100
AcDbLine
 10
338.333333333333
 20
52.0
 30
0.0
 11
338.333333333333
 21
58.0
 31
0.0
  0
ARC
  5
BCA
330
1E
100
AcDbEntity
  8
PEG-L150AG
100
AcDbCircle
 10
338.9999999999997
 20
52.0
 30
0.0
 40
0.6666666666666661
100
AcDbArc
 50
180.0
 51
270.0
  0
LINE
  5
BCB
330
1E
100
AcDbEntity
  8
PEG-L150AG
100
AcDbLine
 10
338.9999999999997
 20
58.66666666666667
 30
0.0
 11
338.9999999999997
 21
60.0
 31
0.0
  0
ARC
  5
BCC
330
1E
100
AcDbEntity
  8
PEG-L150AG
100
AcDbCircle
 10
338.9999999999997
 20
58.0
 30
0.0
 40
0.6666666666666661
100
AcDbArc
 50
90.0
 51
180.0
  0
LINE
  5
BCD
330
1E
100
AcDbEntity
  8
PEG-L150AG
100
AcDbLine
 10
364.3333333333329
 20
51.33333333333334
 30
0.0
 11
364.3333333333329
 21
49.83333333333334
 31
0.0
  0
LINE
  5
BD2
330
1E
100
AcDbEntity
  8
PEG-L150AG
100
AcDbLine
 10
194.4057523075098
 20
128.5303699718228
 30
0.0
 11
195.2106904960839
 21
128.7460525094083
 31
0.0
  0
LINE
  5
BE4
330
1E
100
AcDbEntity
  8
PEG-L150AG
100
AcDbLine
 10
193.833333333333
 20
130.6666666666665
 30
0.0
 11
145.1666666666665
 21
130.6666666666665
 31
0.0
  0
LINE
  5
C74
330
1E
100
AcDbEntity
  8
PEG-L150AG
100
AcDbLine
 10
109.0624744524046
 20
128.6666666666665
 30
0.0
 11
108.5265760675423
 21
130.6666666666665
 31
0.0
  0
LINE
  5
C8C
330
1E
100
AcDbEntity
  8
PEG-L150AG
100
AcDbLine
 10
38.16666666666666
 20
65.83333333333337
 30
0.0
 11
38.16666666666666
 21
68.50000000000003
 31
0.0
  0
LINE
  5
C8D
330
1E
100
AcDbEntity
  8
PEG-L150AG
100
AcDbLine
 10
32.16666666666665
 20
65.83333333333337
 30
0.0
 11
32.16666666666665
 21
68.50000000000003
 31
0.0
  0
ARC
  5
C8E
330
1E
100
AcDbEntity
  8
PEG-L150AG
100
AcDbCircle
 10
32.8333333333333
 20
68.00000000000003
 30
0.0
 40
0.8333333333333325
100
AcDbArc
 50
36.86989764584402
 51
143.1301023541559
  0
ARC
  5
C8F
330
1E
100
AcDbEntity
  8
PEG-L150AG
100
AcDbCircle
 10
35.16666666666665
 20
64.50000000000001
 30
0.0
 40
4.333333333333328
100
AcDbArc
 50
67.38013505195954
 51
112.6198649480402
  0
ARC
  5
C90
330
1E
100
AcDbEntity
  8
PEG-L150AG
100
AcDbCircle
 10
37.5
 20
68.00000000000003
 30
0.0
 40
0.8333333333333325
100
AcDbArc
 50
36.86989764584402
 51
143.1301023541559
  0
LINE
  5
C91
330
1E
100
AcDbEntity
  8
PEG-L150AG
100
AcDbLine
 10
37.5
 20
68.83333333333337
 30
0.0
 11
32.8333333333333
 21
68.83333333333337
 31
0.0
  0
LINE
  5
C92
330
1E
100
AcDbEntity
  8
PEG-L150AG
100
AcDbLine
 10
33.5
 20
68.50000000000003
 30
0.0
 11
33.5
 21
65.83333333333337
 31
0.0
  0
LINE
  5
C93
330
1E
100
AcDbEntity
  8
PEG-L150AG
100
AcDbLine
 10
36.83333333333331
 20
65.83333333333337
 30
0.0
 11
36.83333333333331
 21
68.50000000000003
 31
0.0
  0
LINE
  5
C94
330
1E
100
AcDbEntity
  8
PEG-L150AG
100
AcDbLine
 10
35.16666666666665
 20
65.83333333333337
 30
0.0
 11
38.5
 21
65.83333333333337
 31
0.0
  0
LINE
  5
C95
330
1E
100
AcDbEntity
  8
PEG-L150AG
100
AcDbLine
 10
38.5
 20
65.83333333333337
 30
0.0
 11
38.5
 21
65.33333333333337
 31
0.0
  0
LINE
  5
C96
330
1E
100
AcDbEntity
  8
PEG-L150AG
100
AcDbLine
 10
35.16666666666665
 20
65.83333333333337
 30
0.0
 11
31.8333333333333
 21
65.83333333333337
 31
0.0
  0
LINE
  5
C97
330
1E
100
AcDbEntity
  8
PEG-L150AG
100
AcDbLine
 10
31.8333333333333
 20
65.83333333333337
 30
0.0
 11
31.8333333333333
 21
65.33333333333337
 31
0.0
  0
ARC
  5
C98
330
1E
100
AcDbEntity
  8
PEG-L150AG
100
AcDbCircle
 10
159.4999999999996
 20
68.00000000000003
 30
0.0
 40
0.8333333333333325
100
AcDbArc
 50
36.86989764584402
 51
143.1301023541559
  0
LINE
  5
C99
330
1E
100
AcDbEntity
  8
PEG-L150AG
100
AcDbLine
 10
161.8333333333332
 20
65.83333333333337
 30
0.0
 11
158.4999999999998
 21
65.83333333333337
 31
0.0
  0
LINE
  5
C9A
330
1E
100
AcDbEntity
  8
PEG-L150AG
100
AcDbLine
 10
164.1666666666665
 20
68.83333333333337
 30
0.0
 11
159.4999999999996
 21
68.83333333333337
 31
0.0
  0
LINE
  5
C9B
330
1E
100
AcDbEntity
  8
PEG-L150AG
100
AcDbLine
 10
158.8333333333332
 20
65.83333333333337
 30
0.0
 11
158.8333333333332
 21
68.50000000000003
 31
0.0
  0
LINE
  5
C9C
330
1E
100
AcDbEntity
  8
PEG-L150AG
100
AcDbLine
 10
158.4999999999998
 20
65.83333333333337
 30
0.0
 11
158.4999999999998
 21
65.33333333333337
 31
0.0
  0
LINE
  5
C9D
330
1E
100
AcDbEntity
  8
PEG-L150AG
100
AcDbLine
 10
163.4999999999998
 20
65.83333333333337
 30
0.0
 11
163.4999999999998
 21
68.50000000000003
 31
0.0
  0
LINE
  5
C9E
330
1E
100
AcDbEntity
  8
PEG-L150AG
100
AcDbLine
 10
164.8333333333332
 20
65.83333333333337
 30
0.0
 11
164.8333333333332
 21
68.50000000000003
 31
0.0
  0
LINE
  5
C9F
330
1E
100
AcDbEntity
  8
PEG-L150AG
100
AcDbLine
 10
160.1666666666665
 20
68.50000000000003
 30
0.0
 11
160.1666666666665
 21
65.83333333333337
 31
0.0
  0
LINE
  5
CA0
330
1E
100
AcDbEntity
  8
PEG-L150AG
100
AcDbLine
 10
161.8333333333332
 20
65.83333333333337
 30
0.0
 11
165.1666666666665
 21
65.83333333333337
 31
0.0
  0
LINE
  5
CA1
330
1E
100
AcDbEntity
  8
PEG-L150AG
100
AcDbLine
 10
165.1666666666665
 20
65.83333333333337
 30
0.0
 11
165.1666666666665
 21
65.33333333333337
 31
0.0
  0
ARC
  5
CA2
330
1E
100
AcDbEntity
  8
PEG-L150AG
100
AcDbCircle
 10
164.1666666666665
 20
68.00000000000003
 30
0.0
 40
0.8333333333333325
100
AcDbArc
 50
36.86989764584402
 51
143.1301023541559
  0
ARC
  5
CA3
330
1E
100
AcDbEntity
  8
PEG-L150AG
100
AcDbCircle
 10
161.8333333333332
 20
64.50000000000001
 30
0.0
 40
4.333333333333328
100
AcDbArc
 50
67.38013505195954
 51
112.6198649480402
  0
LINE
  5
CAF
330
1E
100
AcDbEntity
  8
PEG-L150AG
100
AcDbLine
 10
70.76539055055306
 20
118.6666666666666
 30
0.0
 11
79.43205721721972
 21
118.6666666666666
 31
0.0
  0
LINE
  5
CB0
330
1E
100
AcDbEntity
  8
PEG-L150AG
100
AcDbLine
 10
79.43205721721972
 20
119.1666666666665
 30
0.0
 11
79.43205721721972
 21
122.4999999999997
 31
0.0
  0
LINE
  5
CB1
330
1E
100
AcDbEntity
  8
PEG-L150AG
100
AcDbLine
 10
70.76539055055306
 20
122.4999999999997
 30
0.0
 11
70.76539055055306
 21
119.1666666666665
 31
0.0
  0
ARC
  5
CB2
330
1E
100
AcDbEntity
  8
PEG-L150AG
100
AcDbCircle
 10
71.84872388388638
 20
120.9062499999999
 30
0.0
 40
1.927083333333331
100
AcDbArc
 50
55.79454206189526
 51
124.2054579381047
  0
ARC
  5
CB3
330
1E
100
AcDbEntity
  8
PEG-L150AG
100
AcDbCircle
 10
75.09872388388638
 20
115.6346756366025
 30
0.0
 40
7.199105712454914
100
AcDbArc
 50
72.48452921193393
 51
107.515470788066
  0
ARC
  5
CB4
330
1E
100
AcDbEntity
  8
PEG-L150AG
100
AcDbCircle
 10
78.34872388388638
 20
120.9166666666666
 30
0.0
 40
1.918477405536885
100
AcDbArc
 50
55.61965527615512
 51
124.3803447238447
  0
LINE
  5
CB5
330
1E
100
AcDbEntity
  8
PEG-L150AG
100
AcDbLine
 10
71.84872388388638
 20
122.833333333333
 30
0.0
 11
78.34872388388638
 21
122.8351440722034
 31
0.0
  0
LINE
  5
CB6
330
1E
100
AcDbEntity
  8
PEG-L150AG
100
AcDbLine
 10
77.26539055055305
 20
122.4999999999997
 30
0.0
 11
77.26539055055305
 21
119.1666666666665
 31
0.0
  0
LINE
  5
CB7
330
1E
100
AcDbEntity
  8
PEG-L150AG
100
AcDbLine
 10
72.93205721721972
 20
119.1666666666665
 30
0.0
 11
72.93205721721972
 21
122.4999999999997
 31
0.0
  0
LINE
  5
CB8
330
1E
100
AcDbEntity
  8
PEG-L150AG
100
AcDbLine
 10
75.09872388388638
 20
125.6666666666665
 30
0.0
 11
75.09872388388638
 21
118.6666666666665
 31
0.0
  0
LINE
  5
CB9
330
1E
100
AcDbEntity
  8
PEG-L150AG
100
AcDbLine
 10
70.16666666666663
 20
119.1666666666665
 30
0.0
 11
70.16666666666663
 21
118.6666666666666
 31
0.0
  0
LINE
  5
CBA
330
1E
100
AcDbEntity
  8
PEG-L150AG
100
AcDbLine
 10
70.16666666666663
 20
119.1666666666665
 30
0.0
 11
79.99999999999996
 21
119.1666666666665
 31
0.0
  0
LINE
  5
CBB
330
1E
100
AcDbEntity
  8
PEG-L150AG
100
AcDbLine
 10
79.99999999999996
 20
119.1666666666665
 30
0.0
 11
79.99999999999996
 21
118.6666666666666
 31
0.0
  0
LINE
  5
CC4
330
1E
100
AcDbEntity
  8
PEG-L150AG
100
AcDbLine
 10
297.9999999999997
 20
130.6666666666665
 30
0.0
 11
326.6666666666663
 21
130.6666666666665
 31
0.0
  0
LINE
  5
CC5
330
1E
100
AcDbEntity
  8
PEG-L150AG
100
AcDbLine
 10
326.6666666666663
 20
130.6666666666665
 30
0.0
 11
326.6666666666663
 21
118.6666666666666
 31
0.0
  0
LINE
  5
CC6
330
1E
100
AcDbEntity
  8
PEG-L150AG
100
AcDbLine
 10
297.9999999999997
 20
130.6666666666665
 30
0.0
 11
297.9999999999997
 21
118.6666666666666
 31
0.0
  0
ARC
  5
CC7
330
1E
100
AcDbEntity
  8
PEG-L150AG
100
AcDbCircle
 10
35.16666666666665
 20
183.4999999999998
 30
0.0
 40
2.333333333333331
100
AcDbArc
 50
0.0
 51
180.0
  0
ARC
  5
CC8
330
1E
100
AcDbEntity
  8
PEG-L150AG
100
AcDbCircle
 10
35.16666666666665
 20
170.1666666666665
 30
0.0
 40
2.333333333333331
100
AcDbArc
 50
180.0
 51
0.0
  0
LINE
  5
CC9
330
1E
100
AcDbEntity
  8
PEG-L150AG
100
AcDbLine
 10
37.5
 20
170.1666666666665
 30
0.0
 11
37.5
 21
183.4999999999998
 31
0.0
  0
LINE
  5
CCA
330
1E
100
AcDbEntity
  8
PEG-L150AG
100
AcDbLine
 10
32.8333333333333
 20
183.4999999999998
 30
0.0
 11
32.8333333333333
 21
170.1666666666665
 31
0.0
  0
ARC
  5
CCB
330
1E
100
AcDbEntity
  8
PEG-L150AG
100
AcDbCircle
 10
35.16666666666665
 20
170.1666666666665
 30
0.0
 40
4.999999999999995
100
AcDbArc
 50
180.0
 51
0.0
  0
LINE
  5
CCC
330
1E
100
AcDbEntity
  8
PEG-L150AG
100
AcDbLine
 10
30.16666666666665
 20
170.1666666666665
 30
0.0
 11
30.16666666666665
 21
191.8333333333331
 31
0.0
  0
LINE
  5
CCD
330
1E
100
AcDbEntity
  8
PEG-L150AG
100
AcDbLine
 10
40.16666666666664
 20
170.1666666666665
 30
0.0
 11
40.16666666666664
 21
191.8333333333331
 31
0.0
  0
LINE
  5
CCE
330
1E
100
AcDbEntity
  8
PEG-L150AG
100
AcDbLine
 10
29.16666666666666
 20
183.4999999999998
 30
0.0
 11
41.16666666666666
 21
183.4999999999998
 31
0.0
  0
LINE
  5
CCF
330
1E
100
AcDbEntity
  8
PEG-L150AG
100
AcDbLine
 10
42.33333333333331
 20
170.1666666666665
 30
0.0
 11
27.83333333333334
 21
170.1666666666665
 31
0.0
  0
ARC
  5
CD0
330
1E
100
AcDbEntity
  8
PEG-L150AG
100
AcDbCircle
 10
35.16666666666665
 20
196.833333333333
 30
0.0
 40
4.999999999999995
100
AcDbArc
 50
180.0
 51
0.0
  0
LINE
  5
CD1
330
1E
100
AcDbEntity
  8
PEG-L150AG
100
AcDbLine
 10
26.5
 20
196.833333333333
 30
0.0
 11
43.66666666666666
 21
196.833333333333
 31
0.0
  0
LINE
  5
CD2
330
1E
100
AcDbEntity
  8
PEG-L150AG
100
AcDbLine
 10
31.33333333333334
 20
176.8333333333329
 30
0.0
 11
39.16666666666666
 21
176.8333333333329
 31
0.0
  0
ARC
  5
CD3
330
1E
100
AcDbEntity
  8
PEG-L150AG
100
AcDbCircle
 10
35.16666666666665
 20
196.833333333333
 30
0.0
 40
4.999999999999995
100
AcDbArc
 50
0.0
 51
180.0
  0
LINE
  5
CD4
330
1E
100
AcDbEntity
  8
PEG-L150AG
100
AcDbLine
 10
329.833333333333
 20
128.6666666666665
 30
0.0
 11
329.8333333333331
 21
72.06666666666662
 31
0.0
  0
LINE
  5
CD5
330
1E
100
AcDbEntity
  8
PEG-L150AG
100
AcDbLine
 10
294.833333333333
 20
128.6666666666665
 30
0.0
 11
294.833333333333
 21
72.06666666666662
 31
0.0
  0
LINE
  5
CD6
330
1E
100
AcDbEntity
  8
PEG-L150AG
100
AcDbLine
 10
95.1666666666666
 20
192.8333333333331
 30
0.0
 11
95.1666666666666
 21
244.1666666666664
 31
0.0
  0
LINE
  5
CD7
330
1E
100
AcDbEntity
  8
PEG-L150AG
100
AcDbLine
 10
86.9167701484393
 20
194.833333333333
 30
0.0
 11
86.9167701484393
 21
242.1666666666665
 31
0.0
  0
LINE
  5
CD8
330
1E
100
AcDbEntity
  8
PEG-L150AG
100
AcDbLine
 10
53.80703109017111
 20
194.833333333333
 30
0.0
 11
53.80703109017111
 21
242.1666666666665
 31
0.0
  0
LINE
  5
CD9
330
1E
100
AcDbEntity
  8
PEG-L150AG
100
AcDbLine
 10
94.16666666666662
 20
191.8333333333331
 30
0.0
 11
30.99067601316781
 21
191.8333333333331
 31
0.0
  0
LINE
  5
CDA
330
1E
100
AcDbEntity
  8
PEG-L150AG
100
AcDbLine
 10
94.16666666666662
 20
245.1666666666663
 30
0.0
 11
30.99067601316781
 21
245.1666666666663
 31
0.0
  0
LINE
  5
CDB
330
1E
100
AcDbEntity
  8
PEG-L150AG
100
AcDbLine
 10
29.99067601316781
 20
193.833333333333
 30
0.0
 11
29.99067601316781
 21
243.1666666666663
 31
0.0
  0
ARC
  5
CDC
330
1E
100
AcDbEntity
  8
PEG-L150AG
100
AcDbCircle
 10
94.16666666666662
 20
192.8333333333331
 30
0.0
 40
0.9999999999999992
100
AcDbArc
 50
270.0
 51
0.0
  0
ARC
  5
CDD
330
1E
100
AcDbEntity
  8
PEG-L150AG
100
AcDbCircle
 10
94.16666666666662
 20
244.1666666666664
 30
0.0
 40
0.9999999999999992
100
AcDbArc
 50
0.0
 51
90.0
  0
LINE
  5
CDE
330
1E
100
AcDbEntity
  8
PEG-L150AG
100
AcDbLine
 10
84.91677014843929
 20
192.8333333333331
 30
0.0
 11
55.80703109017111
 21
192.8333333333331
 31
0.0
  0
LINE
  5
CDF
330
1E
100
AcDbEntity
  8
PEG-L150AG
100
AcDbLine
 10
84.91677014843929
 20
244.1666666666664
 30
0.0
 11
55.80703109017111
 21
244.1666666666664
 31
0.0
  0
LINE
  5
CE0
330
1E
100
AcDbEntity
  8
PEG-L150AG
100
AcDbLine
 10
54.1003700510411
 20
193.7905926668605
 30
0.0
 11
30.28356923198126
 21
193.1262265521466
 31
0.0
  0
LINE
  5
CE1
330
1E
100
AcDbEntity
  8
PEG-L150AG
100
AcDbLine
 10
28.5
 20
191.8333333333331
 30
0.0
 11
28.5
 21
245.1666666666663
 31
0.0
  0
LINE
  5
CE2
330
1E
100
AcDbEntity
  8
PEG-L150AG
100
AcDbLine
 10
28.5
 20
191.8333333333331
 30
0.0
 11
30.99067601316781
 21
191.8333333333331
 31
0.0
  0
LINE
  5
CE3
330
1E
100
AcDbEntity
  8
PEG-L150AG
100
AcDbLine
 10
30.99067601316781
 20
245.1666666666663
 30
0.0
 11
28.5
 21
245.1666666666663
 31
0.0
  0
LINE
  5
CE4
330
1E
100
AcDbEntity
  8
PEG-L150AG
100
AcDbLine
 10
57.14036442350446
 20
192.8333333333331
 30
0.0
 11
30.99067601316781
 21
192.8333333333331
 31
0.0
  0
ARC
  5
CE5
330
1E
100
AcDbEntity
  8
PEG-L150AG
100
AcDbCircle
 10
30.99067601316781
 20
193.833333333333
 30
0.0
 40
0.9999999999999992
100
AcDbArc
 50
179.9999999999999
 51
270.0
  0
LINE
  5
CE6
330
1E
100
AcDbEntity
  8
PEG-L150AG
100
AcDbLine
 10
54.1003700510411
 20
243.209407333139
 30
0.0
 11
30.28356923198126
 21
243.8737734478528
 31
0.0
  0
LINE
  5
CE7
330
1E
100
AcDbEntity
  8
PEG-L150AG
100
AcDbLine
 10
57.14036442350446
 20
244.1666666666664
 30
0.0
 11
30.99067601316781
 21
244.1666666666664
 31
0.0
  0
ARC
  5
CE8
330
1E
100
AcDbEntity
  8
PEG-L150AG
100
AcDbCircle
 10
30.99067601316781
 20
243.1666666666663
 30
0.0
 40
0.9999999999999992
100
AcDbArc
 50
90.0
 51
180.0
  0
LINE
  5
CE9
330
1E
100
AcDbEntity
  8
PEG-L150AG
100
AcDbLine
 10
86.55978438490567
 20
243.3070631848867
 30
0.0
 11
93.73598527960606
 21
244.6593656122427
 31
0.0
  0
LINE
  5
CEA
330
1E
100
AcDbEntity
  8
PEG-L150AG
100
AcDbLine
 10
86.55978438490569
 20
193.6929368151129
 30
0.0
 11
93.73598527960606
 21
192.3406343877569
 31
0.0
  0
ARC
  5
CEB
330
1E
100
AcDbEntity
  8
PEG-L150AG
100
AcDbCircle
 10
55.80703109017111
 20
194.833333333333
 30
0.0
 40
1.999999999999998
100
AcDbArc
 50
180.0
 51
270.0
  0
ARC
  5
CEC
330
1E
100
AcDbEntity
  8
PEG-L150AG
100
AcDbCircle
 10
84.91677014843929
 20
194.833333333333
 30
0.0
 40
1.999999999999998
100
AcDbArc
 50
270.0
 51
0.0
  0
ARC
  5
CED
330
1E
100
AcDbEntity
  8
PEG-L150AG
100
AcDbCircle
 10
84.91677014843929
 20
242.1666666666665
 30
0.0
 40
1.999999999999998
100
AcDbArc
 50
0.0
 51
90.0
  0
ARC
  5
CEE
330
1E
100
AcDbEntity
  8
PEG-L150AG
100
AcDbCircle
 10
55.80703109017111
 20
242.1666666666665
 30
0.0
 40
1.999999999999998
100
AcDbArc
 50
89.99999999999994
 51
180.0
  0
CIRCLE
  5
CEF
330
1E
100
AcDbEntity
  8
PEG-L150AG
100
AcDbCircle
 10
75.16666666666663
 20
218.4999999999998
 30
0.0
 40
4.833333333333328
  0
LWPOLYLINE
  5
CF0
330
1E
100
AcDbEntity
  8
PEG-L150AG
100
AcDbPolyline
 90
        6
 70
     1
 43
0.0
 10
79.49999999999995
 20
218.4999999999998
 10
77.33333333333328
 20
222.2527767497323
 10
72.99999999999996
 20
222.2527767497323
 10
70.83333333333328
 20
218.4999999999998
 10
72.99999999999996
 20
214.747223250267
 10
77.33333333333328
 20
214.747223250267
  0
CIRCLE
  5
CF8
330
1E
100
AcDbEntity
  8
PEG-L150AG
100
AcDbCircle
 10
75.16666666666663
 20
218.4999999999998
 30
0.0
 40
3.752776749732556
  0
LINE
  5
CF9
330
1E
100
AcDbEntity
  8
PEG-L150AG
100
AcDbLine
 10
75.16666666666663
 20
210.3333333333329
 30
0.0
 11
75.16666666666663
 21
226.6666666666663
 31
0.0
  0
LINE
  5
CFA
330
1E
100
AcDbEntity
  8
PEG-L150AG
100
AcDbLine
 10
328.333333333333
 20
128.6666666666665
 30
0.0
 11
328.333333333333
 21
104.6518498591144
 31
0.0
  0
LINE
  5
CFB
330
1E
100
AcDbEntity
  8
PEG-L150AG
100
AcDbLine
 10
296.333333333333
 20
128.6666666666665
 30
0.0
 11
296.333333333333
 21
104.6518498591144
 31
0.0
  0
LINE
  5
CFC
330
1E
100
AcDbEntity
  8
PEG-L150AG
100
AcDbLine
 10
298.9999999999998
 20
130.3189865028334
 30
0.0
 11
325.6666666666664
 21
130.3189865028334
 31
0.0
  0
LINE
  5
CFD
330
1E
100
AcDbEntity
  8
PEG-L150AG
100
AcDbLine
 10
298.9999999999997
 20
121.9476293416615
 30
0.0
 11
325.6666666666661
 21
121.9476293416615
 31
0.0
  0
LINE
  5
CFE
330
1E
100
AcDbEntity
  8
PEG-L150AG
100
AcDbLine
 10
299.6666666666664
 20
127.2979936252088
 30
0.0
 11
324.9999999999997
 21
127.2979936252088
 31
0.0
  0
LINE
  5
CFF
330
1E
100
AcDbEntity
  8
PEG-L150AG
100
AcDbLine
 10
307.1666666666664
 20
126.1313269585421
 30
0.0
 11
307.1666666666664
 21
127.2979936252088
 31
0.0
  0
LINE
  5
D00
330
1E
100
AcDbEntity
  8
PEG-L150AG
100
AcDbLine
 10
301.4999999999997
 20
126.1313269585421
 30
0.0
 11
301.4999999999997
 21
127.2979936252088
 31
0.0
  0
LWPOLYLINE
  5
D01
330
1E
100
AcDbEntity
  8
PEG-L150AG
100
AcDbPolyline
 90
       16
 70
     1
 43
0.0
 10
307.1666666666664
 20
127.2979936252088
 42
0.1045879902260817
 10
306.9539916268197
 20
128.3035998236675
 42
0.1008110883959759
 10
306.3368025466948
 20
129.1721920466061
 42
0.0958923622556831
 10
305.4262581137752
 20
129.7441656035844
 42
0.0926822815441354
 10
304.333333333333
 20
129.948510451327
 42
0.0926822815441343
 10
303.2404085528908
 20
129.7441656035844
 42
0.0958923622556752
 10
302.3298641199712
 20
129.1721920466061
 42
0.1008110883959787
 10
301.7126750398464
 20
128.3035998236675
 42
0.1045879902260827
 10
301.4999999999997
 20
127.2979936252088
 42
0.1045879902260966
 10
301.7126750398464
 20
126.2923874267499
 42
0.1008110883959818
 10
302.3298641199712
 20
125.4237952038115
 42
0.095892362255677
 10
303.2404085528908
 20
124.8518216468333
 42
0.0926822815441364
 10
304.333333333333
 20
124.6474767990906
 42
0.0926822815441333
 10
305.4262581137752
 20
124.8518216468333
 42
0.0958923622556806
 10
306.3368025466948
 20
125.4237952038115
 42
0.1008110883959725
 10
306.9539916268197
 20
126.29238742675
 42
0.1045879902260803
  0
LWPOLYLINE
  5
D16
330
1E
100
AcDbEntity
  8
PEG-L150AG
100
AcDbPolyline
 90
        9
 70
     0
 43
0.0
 10
301.4999999999997
 20
126.1313269585421
 42
0.1045879902260966
 10
301.7126750398464
 20
125.1257207600834
 42
0.1008110883959818
 10
302.3298641199712
 20
124.2571285371449
 42
0.095892362255677
 10
303.2404085528908
 20
123.6851549801665
 42
0.0926822815441364
 10
304.333333333333
 20
123.480810132424
 42
0.0926822815441333
 10
305.4262581137752
 20
123.6851549801665
 42
0.0958923622556806
 10
306.3368025466948
 20
124.2571285371449
 42
0.1008110883959725
 10
306.9539916268197
 20
125.1257207600835
 42
0.1045879902260803
 10
307.1666666666664
 20
126.1313269585421
 42
0.1045879902260817
  0
ARC
  5
D21
330
1E
100
AcDbEntity
  8
PEG-L150AG
100
AcDbCircle
 10
304.3333333333331
 20
127.3853832082668
 30
0.0
 40
2.968447608306236
100
AcDbArc
 50
197.3534082325674
 51
342.6465917674318
  0
LWPOLYLINE
  5
D22
330
1E
100
AcDbEntity
  8
PEG-L150AG
100
AcDbPolyline
 90
        6
 70
     1
 43
0.0
 10
305.833333333333
 20
127.4646602918753
 10
305.0833333333331
 20
128.763698397552
 10
303.583333333333
 20
128.763698397552
 10
302.8333333333331
 20
127.4646602918753
 10
303.583333333333
 20
126.1656221861989
 10
305.0833333333331
 20
126.1656221861989
  0
LWPOLYLINE
  5
D2A
330
1E
100
AcDbEntity
  8
PEG-L150AG
100
AcDbPolyline
 90
        4
 70
     0
 43
0.0
 10
305.7852208109006
 20
127.381326958542
 10
305.0833333333331
 20
128.5970317308855
 10
303.583333333333
 20
128.5970317308855
 10
302.8814458557655
 20
127.381326958542
  0
LWPOLYLINE
  5
D30
330
1E
100
AcDbEntity
  8
PEG-L150AG
100
AcDbPolyline
 90
       16
 70
     1
 43
0.0
 10
323.1666666666664
 20
127.2979936252088
 42
0.1045879902260817
 10
322.9539916268196
 20
128.3035998236675
 42
0.1008110883959759
 10
322.3368025466947
 20
129.1721920466061
 42
0.0958923622556831
 10
321.4262581137751
 20
129.7441656035844
 42
0.0926822815441354
 10
320.333333333333
 20
129.948510451327
 42
0.0926822815441343
 10
319.2404085528908
 20
129.7441656035844
 42
0.0958923622556752
 10
318.3298641199712
 20
129.1721920466061
 42
0.1008110883959787
 10
317.7126750398465
 20
128.3035998236675
 42
0.1045879902260827
 10
317.4999999999997
 20
127.2979936252088
 42
0.1045879902260966
 10
317.7126750398465
 20
126.2923874267499
 42
0.1008110883959818
 10
318.3298641199712
 20
125.4237952038115
 42
0.095892362255677
 10
319.2404085528908
 20
124.8518216468333
 42
0.0926822815441364
 10
320.333333333333
 20
124.6474767990906
 42
0.0926822815441333
 10
321.4262581137751
 20
124.8518216468333
 42
0.0958923622556806
 10
322.3368025466947
 20
125.4237952038115
 42
0.1008110883959725
 10
322.9539916268196
 20
126.29238742675
 42
0.1045879902260803
  0
LWPOLYLINE
  5
D42
330
1E
100
AcDbEntity
  8
PEG-L150AG
100
AcDbPolyline
 90
        4
 70
     0
 43
0.0
 10
321.7852208109006
 20
127.381326958542
 10
321.083333333333
 20
128.5970317308855
 10
319.5833333333331
 20
128.5970317308855
 10
318.8814458557653
 20
127.381326958542
  0
LWPOLYLINE
  5
D48
330
1E
100
AcDbEntity
  8
PEG-L150AG
100
AcDbPolyline
 90
        6
 70
     1
 43
0.0
 10
321.8333333333331
 20
127.4646602918753
 10
321.083333333333
 20
128.763698397552
 10
319.5833333333331
 20
128.763698397552
 10
318.833333333333
 20
127.4646602918753
 10
319.5833333333331
 20
126.1656221861989
 10
321.083333333333
 20
126.1656221861989
  0
ARC
  5
D50
330
1E
100
AcDbEntity
  8
PEG-L150AG
100
AcDbCircle
 10
320.333333333333
 20
127.3853832082668
 30
0.0
 40
2.968447608306236
100
AcDbArc
 50
197.3534082325674
 51
342.6465917674318
  0
LWPOLYLINE
  5
D51
330
1E
100
AcDbEntity
  8
PEG-L150AG
100
AcDbPolyline
 90
        9
 70
     0
 43
0.0
 10
317.4999999999997
 20
126.1313269585421
 42
0.1045879902260966
 10
317.7126750398465
 20
125.1257207600834
 42
0.1008110883959818
 10
318.3298641199712
 20
124.2571285371449
 42
0.095892362255677
 10
319.2404085528908
 20
123.6851549801665
 42
0.0926822815441364
 10
320.333333333333
 20
123.480810132424
 42
0.0926822815441333
 10
321.4262581137751
 20
123.6851549801665
 42
0.0958923622556806
 10
322.3368025466947
 20
124.2571285371449
 42
0.1008110883959725
 10
322.9539916268196
 20
125.1257207600835
 42
0.1045879902260803
 10
323.1666666666664
 20
126.1313269585421
 42
0.1045879902260817
  0
LINE
  5
D5C
330
1E
100
AcDbEntity
  8
PEG-L150AG
100
AcDbLine
 10
323.1666666666664
 20
126.1313269585421
 30
0.0
 11
323.1666666666664
 21
127.2979936252088
 31
0.0
  0
LINE
  5
D5D
330
1E
100
AcDbEntity
  8
PEG-L150AG
100
AcDbLine
 10
317.4999999999997
 20
126.1313269585421
 30
0.0
 11
317.4999999999997
 21
127.2979936252088
 31
0.0
  0
LINE
  5
D5E
330
1E
100
AcDbEntity
  8
PEG-L150AG
100
AcDbLine
 10
320.333333333333
 20
105.5409324723652
 30
0.0
 11
320.333333333333
 21
114.2429388471563
 31
0.0
  0
LINE
  5
D5F
330
1E
100
AcDbEntity
  8
PEG-L150AG
100
AcDbLine
 10
304.333333333333
 20
114.2429388471563
 30
0.0
 11
304.333333333333
 21
105.5409324723652
 31
0.0
  0
LWPOLYLINE
  5
D60
330
1E
100
AcDbEntity
  8
PEG-L150AG
100
AcDbPolyline
 90
       16
 70
     1
 43
0.0
 10
323.1666666666664
 20
110.5552793028649
 42
0.1045879902260817
 10
322.9539916268196
 20
111.5608855013237
 42
0.1008110883959759
 10
322.3368025466947
 20
112.429477724262
 42
0.0958923622556831
 10
321.4262581137751
 20
113.0014512812405
 42
0.0926822815441354
 10
320.333333333333
 20
113.2057961289832
 42
0.0926822815441343
 10
319.2404085528908
 20
113.0014512812405
 42
0.0958923622556752
 10
318.3298641199712
 20
112.429477724262
 42
0.1008110883959787
 10
317.7126750398465
 20
111.5608855013237
 42
0.1045879902260827
 10
317.4999999999997
 20
110.5552793028649
 42
0.1045879902260966
 10
317.7126750398465
 20
109.5496731044063
 42
0.1008110883959818
 10
318.3298641199712
 20
108.6810808814678
 42
0.095892362255677
 10
319.2404085528908
 20
108.1091073244892
 42
0.0926822815441364
 10
320.333333333333
 20
107.9047624767467
 42
0.0926822815441333
 10
321.4262581137751
 20
108.1091073244892
 42
0.0958923622556806
 10
322.3368025466947
 20
108.6810808814678
 42
0.1008110883959725
 10
322.9539916268196
 20
109.5496731044063
 42
0.1045879902260803
  0
LWPOLYLINE
  5
D72
330
1E
100
AcDbEntity
  8
PEG-L150AG
100
AcDbPolyline
 90
       16
 70
     1
 43
0.0
 10
307.1666666666664
 20
110.5552793028649
 42
0.1045879902260817
 10
306.9539916268197
 20
111.5608855013237
 42
0.1008110883959759
 10
306.3368025466948
 20
112.429477724262
 42
0.0958923622556831
 10
305.4262581137752
 20
113.0014512812405
 42
0.0926822815441354
 10
304.333333333333
 20
113.2057961289832
 42
0.0926822815441343
 10
303.2404085528908
 20
113.0014512812405
 42
0.0958923622556752
 10
302.3298641199712
 20
112.429477724262
 42
0.1008110883959787
 10
301.7126750398464
 20
111.5608855013237
 42
0.1045879902260827
 10
301.4999999999997
 20
110.5552793028649
 42
0.1045879902260966
 10
301.7126750398464
 20
109.5496731044063
 42
0.1008110883959818
 10
302.3298641199712
 20
108.6810808814678
 42
0.095892362255677
 10
303.2404085528908
 20
108.1091073244892
 42
0.0926822815441364
 10
304.333333333333
 20
107.9047624767467
 42
0.0926822815441333
 10
305.4262581137752
 20
108.1091073244892
 42
0.0958923622556806
 10
306.3368025466948
 20
108.6810808814678
 42
0.1008110883959725
 10
306.9539916268197
 20
109.5496731044063
 42
0.1045879902260803
  0
LINE
  5
D84
330
1E
100
AcDbEntity
  8
PEG-L150AG
100
AcDbLine
 10
298.9999999999998
 20
113.5762721804896
 30
0.0
 11
298.9999999999998
 21
104.6518498591144
 31
0.0
  0
LINE
  5
D85
330
1E
100
AcDbEntity
  8
PEG-L150AG
100
AcDbLine
 10
325.6666666666661
 20
104.6518498591144
 30
0.0
 11
325.6666666666664
 21
113.5762721804896
 31
0.0
  0
LINE
  5
D86
330
1E
100
AcDbEntity
  8
PEG-L150AG
100
AcDbLine
 10
299.6666666666664
 20
110.5552793028649
 30
0.0
 11
324.9999999999997
 21
110.5552793028649
 31
0.0
  0
LINE
  5
D87
330
1E
100
AcDbEntity
  8
PEG-L150AG
100
AcDbLine
 10
298.9999999999997
 20
105.2049150193177
 30
0.0
 11
325.6666666666661
 21
105.2049150193177
 31
0.0
  0
ARC
  5
D88
330
1E
100
AcDbEntity
  8
PEG-L150AG
100
AcDbCircle
 10
304.3333333333331
 20
110.642668885923
 30
0.0
 40
2.968447608306236
100
AcDbArc
 50
197.3534082325674
 51
342.6465917674318
  0
LWPOLYLINE
  5
D89
330
1E
100
AcDbEntity
  8
PEG-L150AG
100
AcDbPolyline
 90
        9
 70
     0
 43
0.0
 10
301.4999999999997
 20
109.3886126361983
 42
0.1045879902260966
 10
301.7126750398464
 20
108.3830064377395
 42
0.1008110883959818
 10
302.3298641199712
 20
107.5144142148011
 42
0.095892362255677
 10
303.2404085528908
 20
106.9424406578228
 42
0.0926822815441364
 10
304.333333333333
 20
106.73809581008
 42
0.0926822815441333
 10
305.4262581137752
 20
106.9424406578228
 42
0.0958923622556806
 10
306.3368025466948
 20
107.5144142148011
 42
0.1008110883959725
 10
306.9539916268197
 20
108.3830064377395
 42
0.1045879902260803
 10
307.1666666666664
 20
109.3886126361983
 42
0.1045879902260817
  0
LWPOLYLINE
  5
D94
330
1E
100
AcDbEntity
  8
PEG-L150AG
100
AcDbPolyline
 90
        4
 70
     0
 43
0.0
 10
305.7852208109006
 20
110.6386126361981
 10
305.0833333333331
 20
111.8543174085417
 10
303.583333333333
 20
111.8543174085417
 10
302.8814458557655
 20
110.6386126361981
  0
LWPOLYLINE
  5
D9A
330
1E
100
AcDbEntity
  8
PEG-L150AG
100
AcDbPolyline
 90
        6
 70
     1
 43
0.0
 10
305.833333333333
 20
110.7219459695317
 10
305.0833333333331
 20
112.0209840752083
 10
303.583333333333
 20
112.0209840752083
 10
302.8333333333331
 20
110.7219459695317
 10
303.583333333333
 20
109.422907863855
 10
305.0833333333331
 20
109.422907863855
  0
LINE
  5
DA2
330
1E
100
AcDbEntity
  8
PEG-L150AG
100
AcDbLine
 10
301.4999999999997
 20
109.3886126361983
 30
0.0
 11
301.4999999999997
 21
110.5552793028649
 31
0.0
  0
LINE
  5
DA3
330
1E
100
AcDbEntity
  8
PEG-L150AG
100
AcDbLine
 10
307.1666666666664
 20
109.3886126361983
 30
0.0
 11
307.1666666666664
 21
110.5552793028649
 31
0.0
  0
LWPOLYLINE
  5
DA4
330
1E
100
AcDbEntity
  8
PEG-L150AG
100
AcDbPolyline
 90
        9
 70
     0
 43
0.0
 10
317.4999999999997
 20
109.3886126361983
 42
0.1045879902260966
 10
317.7126750398465
 20
108.3830064377395
 42
0.1008110883959818
 10
318.3298641199712
 20
107.5144142148011
 42
0.095892362255677
 10
319.2404085528908
 20
106.9424406578228
 42
0.0926822815441364
 10
320.333333333333
 20
106.73809581008
 42
0.0926822815441333
 10
321.4262581137751
 20
106.9424406578228
 42
0.0958923622556806
 10
322.3368025466947
 20
107.5144142148011
 42
0.1008110883959725
 10
322.9539916268196
 20
108.3830064377395
 42
0.1045879902260803
 10
323.1666666666664
 20
109.3886126361983
 42
0.1045879902260817
  0
ARC
  5
DAF
330
1E
100
AcDbEntity
  8
PEG-L150AG
100
AcDbCircle
 10
320.333333333333
 20
110.642668885923
 30
0.0
 40
2.968447608306236
100
AcDbArc
 50
197.3534082325674
 51
342.6465917674318
  0
LWPOLYLINE
  5
DB0
330
1E
100
AcDbEntity
  8
PEG-L150AG
100
AcDbPolyline
 90
        6
 70
     1
 43
0.0
 10
321.8333333333331
 20
110.7219459695317
 10
321.083333333333
 20
112.0209840752083
 10
319.5833333333331
 20
112.0209840752083
 10
318.833333333333
 20
110.7219459695317
 10
319.5833333333331
 20
109.422907863855
 10
321.083333333333
 20
109.422907863855
  0
LWPOLYLINE
  5
DB8
330
1E
100
AcDbEntity
  8
PEG-L150AG
100
AcDbPolyline
 90
        4
 70
     0
 43
0.0
 10
321.7852208109006
 20
110.6386126361981
 10
321.083333333333
 20
111.8543174085417
 10
319.5833333333331
 20
111.8543174085417
 10
318.8814458557653
 20
110.6386126361981
  0
LINE
  5
DBE
330
1E
100
AcDbEntity
  8
PEG-L150AG
100
AcDbLine
 10
317.4999999999997
 20
109.3886126361983
 30
0.0
 11
317.4999999999997
 21
110.5552793028649
 31
0.0
  0
LINE
  5
DBF
330
1E
100
AcDbEntity
  8
PEG-L150AG
100
AcDbLine
 10
323.1666666666664
 20
109.3886126361983
 30
0.0
 11
323.1666666666664
 21
110.5552793028649
 31
0.0
  0
LINE
  5
DC0
330
1E
100
AcDbEntity
  8
PEG-L150AG
100
AcDbLine
 10
298.9999999999998
 20
113.5762721804896
 30
0.0
 11
325.6666666666664
 21
113.5762721804896
 31
0.0
  0
LINE
  5
DC1
330
1E
100
AcDbEntity
  8
PEG-L150AG
100
AcDbLine
 10
298.9999999999998
 20
113.5762721804896
 30
0.0
 11
325.6666666666664
 21
113.5762721804896
 31
0.0
  0
LINE
  5
DC2
330
1E
100
AcDbEntity
  8
PEG-L150AG
100
AcDbLine
 10
324.9999999999997
 20
113.5762721804896
 30
0.0
 11
324.9999999999997
 21
121.171172206354
 31
0.0
  0
LINE
  5
DC3
330
1E
100
AcDbEntity
  8
PEG-L150AG
100
AcDbLine
 10
299.6666666666664
 20
113.5762721804896
 30
0.0
 11
299.6666666666664
 21
121.171172206354
 31
0.0
  0
LINE
  5
DC4
330
1E
100
AcDbEntity
  8
PEG-L150AG
100
AcDbLine
 10
324.9999999999997
 20
118.6666666666666
 30
0.0
 11
328.333333333333
 21
118.6666666666666
 31
0.0
  0
LINE
  5
DC5
330
1E
100
AcDbEntity
  8
PEG-L150AG
100
AcDbLine
 10
298.9999999999998
 20
81.84839602538483
 30
0.0
 11
325.6666666666664
 21
81.84839602538483
 31
0.0
  0
LINE
  5
DC6
330
1E
100
AcDbEntity
  8
PEG-L150AG
100
AcDbLine
 10
298.9999999999998
 20
81.84839602538483
 30
0.0
 11
325.6666666666664
 21
81.84839602538483
 31
0.0
  0
LINE
  5
DC7
330
1E
100
AcDbEntity
  8
PEG-L150AG
100
AcDbLine
 10
298.9999999999998
 20
72.70058172890536
 30
0.0
 11
325.6666666666664
 21
72.70058172890536
 31
0.0
  0
LINE
  5
DC8
330
1E
100
AcDbEntity
  8
PEG-L150AG
100
AcDbLine
 10
298.9999999999997
 20
73.47703886421292
 30
0.0
 11
325.6666666666661
 21
73.47703886421292
 31
0.0
  0
LINE
  5
DC9
330
1E
100
AcDbEntity
  8
PEG-L150AG
100
AcDbLine
 10
299.6666666666664
 20
78.82740314776019
 30
0.0
 11
324.9999999999997
 21
78.82740314776019
 31
0.0
  0
LINE
  5
DCA
330
1E
100
AcDbEntity
  8
PEG-L150AG
100
AcDbLine
 10
307.1666666666664
 20
77.66073648109355
 30
0.0
 11
307.1666666666664
 21
78.82740314776019
 31
0.0
  0
LINE
  5
DCB
330
1E
100
AcDbEntity
  8
PEG-L150AG
100
AcDbLine
 10
301.4999999999997
 20
77.66073648109355
 30
0.0
 11
301.4999999999997
 21
78.82740314776019
 31
0.0
  0
LWPOLYLINE
  5
DCC
330
1E
100
AcDbEntity
  8
PEG-L150AG
100
AcDbPolyline
 90
        6
 70
     1
 43
0.0
 10
305.833333333333
 20
78.99406981442687
 10
305.0833333333331
 20
80.29310792010354
 10
303.583333333333
 20
80.29310792010354
 10
302.8333333333331
 20
78.99406981442687
 10
303.583333333333
 20
77.69503170875022
 10
305.0833333333331
 20
77.69503170875022
  0
LINE
  5
DD4
330
1E
100
AcDbEntity
  8
PEG-L150AG
100
AcDbLine
 10
298.9999999999998
 20
81.84839602538483
 30
0.0
 11
298.9999999999998
 21
72.70058172890536
 31
0.0
  0
LWPOLYLINE
  5
DD5
330
1E
100
AcDbEntity
  8
PEG-L150AG
100
AcDbPolyline
 90
       16
 70
     1
 43
0.0
 10
307.1666666666664
 20
78.82740314776019
 42
0.1045879902260817
 10
306.9539916268197
 20
79.83300934621889
 42
0.1008110883959759
 10
306.3368025466948
 20
80.70160156915743
 42
0.0958923622556831
 10
305.4262581137752
 20
81.27357512613578
 42
0.0926822815441354
 10
304.333333333333
 20
81.47791997387839
 42
0.0926822815441343
 10
303.2404085528908
 20
81.27357512613576
 42
0.0958923622556752
 10
302.3298641199712
 20
80.70160156915743
 42
0.1008110883959787
 10
301.7126750398464
 20
79.83300934621889
 42
0.1045879902260827
 10
301.4999999999997
 20
78.82740314776019
 42
0.1045879902260966
 10
301.7126750398464
 20
77.8217969493015
 42
0.1008110883959818
 10
302.3298641199712
 20
76.953204726363
 42
0.095892362255677
 10
303.2404085528908
 20
76.38123116938466
 42
0.0926822815441364
 10
304.333333333333
 20
76.17688632164202
 42
0.0926822815441333
 10
305.4262581137752
 20
76.38123116938466
 42
0.0958923622556806
 10
306.3368025466948
 20
76.953204726363
 42
0.1008110883959725
 10
306.9539916268197
 20
77.82179694930153
 42
0.1045879902260803
  0
LWPOLYLINE
  5
DE7
330
1E
100
AcDbEntity
  8
PEG-L150AG
100
AcDbPolyline
 90
        9
 70
     0
 43
0.0
 10
301.4999999999997
 20
77.66073648109355
 42
0.1045879902260966
 10
301.7126750398464
 20
76.65513028263484
 42
0.1008110883959818
 10
302.3298641199712
 20
75.78653805969633
 42
0.095892362255677
 10
303.2404085528908
 20
75.21456450271798
 42
0.0926822815441364
 10
304.333333333333
 20
75.01021965497534
 42
0.0926822815441333
 10
305.4262581137752
 20
75.21456450271798
 42
0.0958923622556806
 10
306.3368025466948
 20
75.78653805969633
 42
0.1008110883959725
 10
306.9539916268197
 20
76.65513028263486
 42
0.1045879902260803
 10
307.1666666666664
 20
77.66073648109355
 42
0.1045879902260817
  0
ARC
  5
DF2
330
1E
100
AcDbEntity
  8
PEG-L150AG
100
AcDbCircle
 10
304.3333333333331
 20
78.91479273081819
 30
0.0
 40
2.968447608306236
100
AcDbArc
 50
197.3534082325674
 51
342.6465917674318
  0
LWPOLYLINE
  5
DF3
330
1E
100
AcDbEntity
  8
PEG-L150AG
100
AcDbPolyline
 90
        4
 70
     0
 43
0.0
 10
305.7852208109006
 20
78.91073648109355
 10
305.0833333333331
 20
80.12644125343687
 10
303.583333333333
 20
80.12644125343687
 10
302.8814458557655
 20
78.91073648109351
  0
LINE
  5
DF9
330
1E
100
AcDbEntity
  8
PEG-L150AG
100
AcDbLine
 10
323.1666666666664
 20
77.66073648109355
 30
0.0
 11
323.1666666666664
 21
78.82740314776019
 31
0.0
  0
LINE
  5
DFA
330
1E
100
AcDbEntity
  8
PEG-L150AG
100
AcDbLine
 10
317.4999999999997
 20
77.66073648109355
 30
0.0
 11
317.4999999999997
 21
78.82740314776019
 31
0.0
  0
LWPOLYLINE
  5
DFB
330
1E
100
AcDbEntity
  8
PEG-L150AG
100
AcDbPolyline
 90
        6
 70
     1
 43
0.0
 10
321.8333333333331
 20
78.99406981442687
 10
321.083333333333
 20
80.29310792010354
 10
319.5833333333331
 20
80.29310792010354
 10
318.833333333333
 20
78.99406981442687
 10
319.5833333333331
 20
77.69503170875022
 10
321.083333333333
 20
77.69503170875022
  0
LINE
  5
E03
330
1E
100
AcDbEntity
  8
PEG-L150AG
100
AcDbLine
 10
325.6666666666664
 20
72.70058172890536
 30
0.0
 11
325.6666666666664
 21
81.84839602538483
 31
0.0
  0
LWPOLYLINE
  5
E04
330
1E
100
AcDbEntity
  8
PEG-L150AG
100
AcDbPolyline
 90
       16
 70
     1
 43
0.0
 10
323.1666666666664
 20
78.82740314776019
 42
0.1045879902260817
 10
322.9539916268196
 20
79.83300934621889
 42
0.1008110883959759
 10
322.3368025466947
 20
80.70160156915743
 42
0.0958923622556831
 10
321.4262581137751
 20
81.27357512613578
 42
0.0926822815441354
 10
320.333333333333
 20
81.47791997387839
 42
0.0926822815441343
 10
319.2404085528908
 20
81.27357512613576
 42
0.0958923622556752
 10
318.3298641199712
 20
80.70160156915743
 42
0.1008110883959787
 10
317.7126750398465
 20
79.83300934621889
 42
0.1045879902260827
 10
317.4999999999997
 20
78.82740314776019
 42
0.1045879902260966
 10
317.7126750398465
 20
77.8217969493015
 42
0.1008110883959818
 10
318.3298641199712
 20
76.953204726363
 42
0.095892362255677
 10
319.2404085528908
 20
76.38123116938466
 42
0.0926822815441364
 10
320.333333333333
 20
76.17688632164202
 42
0.0926822815441333
 10
321.4262581137751
 20
76.38123116938466
 42
0.0958923622556806
 10
322.3368025466947
 20
76.953204726363
 42
0.1008110883959725
 10
322.9539916268196
 20
77.82179694930153
 42
0.1045879902260803
  0
ARC
  5
E16
330
1E
100
AcDbEntity
  8
PEG-L150AG
100
AcDbCircle
 10
320.333333333333
 20
78.91479273081819
 30
0.0
 40
2.968447608306236
100
AcDbArc
 50
197.3534082325674
 51
342.6465917674318
  0
LWPOLYLINE
  5
E17
330
1E
100
AcDbEntity
  8
PEG-L150AG
100
AcDbPolyline
 90
        9
 70
     0
 43
0.0
 10
317.4999999999997
 20
77.66073648109355
 42
0.1045879902260966
 10
317.7126750398465
 20
76.65513028263484
 42
0.1008110883959818
 10
318.3298641199712
 20
75.78653805969633
 42
0.095892362255677
 10
319.2404085528908
 20
75.21456450271798
 42
0.0926822815441364
 10
320.333333333333
 20
75.01021965497534
 42
0.0926822815441333
 10
321.4262581137751
 20
75.21456450271798
 42
0.0958923622556806
 10
322.3368025466947
 20
75.78653805969633
 42
0.1008110883959725
 10
322.9539916268196
 20
76.65513028263486
 42
0.1045879902260803
 10
323.1666666666664
 20
77.66073648109355
 42
0.1045879902260817
  0
LWPOLYLINE
  5
E22
330
1E
100
AcDbEntity
  8
PEG-L150AG
100
AcDbPolyline
 90
        4
 70
     0
 43
0.0
 10
321.7852208109006
 20
78.91073648109355
 10
321.083333333333
 20
80.12644125343687
 10
319.5833333333331
 20
80.12644125343687
 10
318.8814458557653
 20
78.91073648109351
  0
LINE
  5
E28
330
1E
100
AcDbEntity
  8
PEG-L150AG
100
AcDbLine
 10
304.333333333333
 20
82.51506269205149
 30
0.0
 11
304.333333333333
 21
73.81305631726046
 31
0.0
  0
LINE
  5
E29
330
1E
100
AcDbEntity
  8
PEG-L150AG
100
AcDbLine
 10
320.333333333333
 20
73.81305631726046
 30
0.0
 11
320.333333333333
 21
82.51506269205149
 31
0.0
  0
LINE
  5
E2A
330
1E
100
AcDbEntity
  8
PEG-L150AG
100
AcDbLine
 10
325.6666666666661
 20
79.99999999999999
 30
0.0
 11
328.333333333333
 21
79.99999999999999
 31
0.0
  0
LINE
  5
E2B
330
1E
100
AcDbEntity
  8
PEG-L150AG
100
AcDbLine
 10
198.4400217414581
 20
128.6666666666665
 30
0.0
 11
101.8333333333333
 21
128.6666666666665
 31
0.0
  0
LINE
  5
E2C
330
1E
100
AcDbEntity
  8
PEG-L150AG
100
AcDbLine
 10
208.4999999999998
 20
71.99999999999999
 30
0.0
 11
110.2821799198596
 21
71.99999999999999
 31
0.0
  0
LINE
  5
E2D
330
1E
100
AcDbEntity
  8
PEG-L150AG
100
AcDbLine
 10
213.6855803996899
 20
84.93647746417611
 30
0.0
 11
208.5091994976395
 21
104.2549939899574
 31
0.0
  0
LINE
  5
E2E
330
1E
100
AcDbEntity
  8
PEG-L150AG
100
AcDbLine
 10
215.1666666666665
 20
85.33333333333331
 30
0.0
 11
209.990285764616
 21
104.6518498591144
 31
0.0
  0
ARC
  5
E2F
330
1E
100
AcDbEntity
  8
PEG-L150AG
100
AcDbCircle
 10
208.4999999999998
 20
78.66666666666666
 30
0.0
 40
6.66666666666666
100
AcDbArc
 50
270.0
 51
0.0
  0
LINE
  5
E30
330
1E
100
AcDbEntity
  8
PEG-L150AG
100
AcDbLine
 10
215.1666666666665
 20
85.33333333333331
 30
0.0
 11
213.6855803996899
 21
84.93647746417611
 31
0.0
  0
ARC
  5
E31
330
1E
100
AcDbEntity
  8
PEG-L150AG
100
AcDbCircle
 10
214.6245514677568
 20
84.39436226526643
 30
0.0
 40
0.7666666666666659
100
AcDbArc
 50
105.0
 51
285.0
  0
LINE
  5
E32
330
1E
100
AcDbEntity
  8
PEG-L150AG
100
AcDbLine
 10
215.1666666666665
 20
83.74590985670451
 30
0.0
 11
214.8229794023353
 21
83.65381913177811
 31
0.0
  0
LINE
  5
E33
330
1E
100
AcDbEntity
  8
PEG-L150AG
100
AcDbLine
 10
215.1666666666665
 20
78.66666666666666
 30
0.0
 11
215.1666666666665
 21
83.74590985670451
 31
0.0
  0
LINE
  5
E34
330
1E
100
AcDbEntity
  8
PEG-L150AG
100
AcDbLine
 10
209.5934298954589
 20
106.1329361260912
 30
0.0
 11
204.8795272500519
 21
123.7254603006834
 31
0.0
  0
ARC
  5
E35
330
1E
100
AcDbEntity
  8
PEG-L150AG
100
AcDbCircle
 10
209.051314696549
 20
105.1939650580241
 30
0.0
 40
0.7666666666666659
100
AcDbArc
 50
105.0000000000002
 51
285.0000000000001
  0
LINE
  5
E36
330
1E
100
AcDbEntity
  8
PEG-L150AG
100
AcDbLine
 10
209.5934298954587
 20
106.1329361260912
 30
0.0
 11
208.8528867619706
 21
105.9345081915125
 31
0.0
  0
LINE
  5
E37
330
1E
100
AcDbEntity
  8
PEG-L150AG
100
AcDbLine
 10
209.990285764616
 20
104.6518498591144
 30
0.0
 11
208.5091994976395
 21
104.2549939899574
 31
0.0
  0
ARC
  5
E38
330
1E
100
AcDbEntity
  8
PEG-L150AG
100
AcDbCircle
 10
198.4400217414581
 20
121.9999999999999
 30
0.0
 40
6.66666666666666
100
AcDbArc
 50
15.00000000000002
 51
90.0
  0
LINE
  5
E39
330
1E
100
AcDbEntity
  8
PEG-L150AG
100
AcDbLine
 10
193.4999999999998
 20
75.99999999999998
 30
0.0
 11
183.4999999999998
 21
75.99999999999998
 31
0.0
  0
CIRCLE
  5
E3A
330
1E
100
AcDbEntity
  8
PEG-L150AG
100
AcDbCircle
 10
188.4999999999998
 20
75.99999999999998
 30
0.0
 40
1.999999999999998
  0
LINE
  5
E3B
330
1E
100
AcDbEntity
  8
PEG-L150AG
100
AcDbLine
 10
188.4999999999998
 20
70.99999999999998
 30
0.0
 11
188.4999999999998
 21
80.99999999999999
 31
0.0
  0
ARC
  5
E3C
330
1E
100
AcDbEntity
  8
PEG-L150AG
100
AcDbCircle
 10
110.2821799198596
 20
78.66666666666666
 30
0.0
 40
6.66666666666666
100
AcDbArc
 50
195.0
 51
270.0
  0
LINE
  5
E3D
330
1E
100
AcDbEntity
  8
PEG-L150AG
100
AcDbLine
 10
113.4999999999999
 20
75.99999999999998
 30
0.0
 11
103.4999999999999
 21
75.99999999999998
 31
0.0
  0
CIRCLE
  5
E3E
330
1E
100
AcDbEntity
  8
PEG-L150AG
100
AcDbCircle
 10
108.4999999999999
 20
75.99999999999998
 30
0.0
 40
1.999999999999998
  0
LINE
  5
E3F
330
1E
100
AcDbEntity
  8
PEG-L150AG
100
AcDbLine
 10
154.6666666666665
 20
85.33333333333331
 30
0.0
 11
142.3333333333332
 21
85.33333333333331
 31
0.0
  0
LINE
  5
E40
330
1E
100
AcDbEntity
  8
PEG-L150AG
100
AcDbLine
 10
159.4999999999996
 20
71.99999999999999
 30
0.0
 11
159.4999999999996
 21
71.99999999999999
 31
0.0
  0
CIRCLE
  5
E41
330
1E
100
AcDbEntity
  8
PEG-L150AG
100
AcDbCircle
 10
148.4999999999998
 20
85.33333333333331
 30
0.0
 40
3.33333333333333
  0
LINE
  5
E42
330
1E
100
AcDbEntity
  8
PEG-L150AG
100
AcDbLine
 10
148.4999999999998
 20
79.16666666666666
 30
0.0
 11
148.4999999999998
 21
91.49999999999996
 31
0.0
  0
LINE
  5
E43
330
1E
100
AcDbEntity
  8
PEG-L150AG
100
AcDbLine
 10
108.4999999999999
 20
70.99999999999998
 30
0.0
 11
108.4999999999999
 21
80.99999999999999
 31
0.0
  0
LINE
  5
E44
330
1E
100
AcDbEntity
  8
PEG-L150AG
100
AcDbLine
 10
97.00523944443377
 20
102.4588610556486
 30
0.0
 11
95.1666666666666
 21
109.3205080756887
 31
0.0
  0
LINE
  5
E45
330
1E
100
AcDbEntity
  8
PEG-L150AG
100
AcDbLine
 10
102.5784762156412
 20
81.6592582628907
 30
0.0
 11
97.402095313591
 21
100.977774788672
 31
0.0
  0
LINE
  5
E46
330
1E
100
AcDbEntity
  8
PEG-L150AG
100
AcDbLine
 10
104.0595624826179
 20
82.05611413204787
 30
0.0
 11
98.88318158056756
 21
101.3746306578292
 31
0.0
  0
LINE
  5
E47
330
1E
100
AcDbEntity
  8
PEG-L150AG
100
AcDbLine
 10
103.8426744112658
 20
76.94120636598317
 30
0.0
 11
102.9753320847985
 21
80.1781719959141
 31
0.0
  0
ARC
  5
E48
330
1E
100
AcDbEntity
  8
PEG-L150AG
100
AcDbCircle
 10
103.5174472837082
 20
81.11714306398097
 30
0.0
 40
0.7666666666666659
100
AcDbArc
 50
285.0000000000001
 51
105.0
  0
LINE
  5
E49
330
1E
100
AcDbEntity
  8
PEG-L150AG
100
AcDbLine
 10
102.9753320847985
 20
80.1781719959141
 30
0.0
 11
103.7158752182868
 21
80.37659993049265
 31
0.0
  0
LINE
  5
E4A
330
1E
100
AcDbEntity
  8
PEG-L150AG
100
AcDbLine
 10
102.5784762156412
 20
81.6592582628907
 30
0.0
 11
104.0595624826179
 21
82.05611413204787
 31
0.0
  0
LINE
  5
E4B
330
1E
100
AcDbEntity
  8
PEG-L150AG
100
AcDbLine
 10
97.00523944443377
 20
102.4588610556486
 30
0.0
 11
97.74578257792207
 21
102.6572889902269
 31
0.0
  0
ARC
  5
E4C
330
1E
100
AcDbEntity
  8
PEG-L150AG
100
AcDbCircle
 10
97.94421051250068
 20
101.9167458567389
 30
0.0
 40
0.7666666666666659
100
AcDbArc
 50
285.0
 51
104.9999999999976
  0
LINE
  5
E4D
330
1E
100
AcDbEntity
  8
PEG-L150AG
100
AcDbLine
 10
97.402095313591
 20
100.977774788672
 30
0.0
 11
98.88318158056756
 21
101.3746306578292
 31
0.0
  0
LINE
  5
E4E
330
1E
100
AcDbEntity
  8
PEG-L150AG
100
AcDbLine
 10
95.1666666666666
 20
109.3205080756887
 30
0.0
 11
95.1666666666666
 21
121.9999999999999
 31
0.0
  0
ARC
  5
E4F
330
1E
100
AcDbEntity
  8
PEG-L150AG
100
AcDbCircle
 10
101.8333333333333
 20
121.9999999999999
 30
0.0
 40
6.66666666666666
100
AcDbArc
 50
90.0
 51
180.0
  0
LINE
  5
E50
330
1E
100
AcDbEntity
  8
PEG-L150AG
100
AcDbLine
 10
294.833333333333
 20
85.33333333333331
 30
0.0
 11
311.6666666666664
 21
85.33333333333331
 31
0.0
  0
LINE
  5
E51
330
1E
100
AcDbEntity
  8
PEG-L150AG
100
AcDbLine
 10
329.8333333333331
 20
79.99999999999999
 30
0.0
 11
338.9999999999997
 21
79.99999999999999
 31
0.0
  0
LINE
  5
E52
330
1E
100
AcDbEntity
  8
PEG-L150AG
100
AcDbLine
 10
296.333333333333
 20
79.99999999999999
 30
0.0
 11
298.9999999999998
 21
79.99999999999999
 31
0.0
  0
LINE
  5
E53
330
1E
100
AcDbEntity
  8
PEG-L150AG
100
AcDbLine
 10
294.833333333333
 20
104.6518498591144
 30
0.0
 11
329.8333333333331
 21
104.6518498591144
 31
0.0
  0
LINE
  5
E54
330
1E
100
AcDbEntity
  8
PEG-L150AG
100
AcDbLine
 10
312.9999999999997
 20
85.33333333333331
 30
0.0
 11
312.9999999999997
 21
104.6666666666665
 31
0.0
  0
LINE
  5
E55
330
1E
100
AcDbEntity
  8
PEG-L150AG
100
AcDbLine
 10
311.6666666666664
 20
104.6666666666665
 30
0.0
 11
311.6666666666664
 21
85.33333333333331
 31
0.0
  0
LINE
  5
E56
330
1E
100
AcDbEntity
  8
PEG-L150AG
100
AcDbLine
 10
312.9999999999997
 20
85.33333333333331
 30
0.0
 11
329.8333333333331
 21
85.33333333333331
 31
0.0
  0
LINE
  5
E57
330
1E
100
AcDbEntity
  8
PEG-L150AG
100
AcDbLine
 10
293.4999999999997
 20
88.66666666666665
 30
0.0
 11
285.6666666666664
 21
88.66666666666665
 31
0.0
  0
LINE
  5
E58
330
1E
100
AcDbEntity
  8
PEG-L150AG
100
AcDbLine
 10
328.333333333333
 20
85.33333333333331
 30
0.0
 11
328.333333333333
 21
72.06666666666662
 31
0.0
  0
LINE
  5
E59
330
1E
100
AcDbEntity
  8
PEG-L150AG
100
AcDbLine
 10
296.3333333333331
 20
85.33333333333331
 30
0.0
 11
296.333333333333
 21
72.06666666666662
 31
0.0
  0
LINE
  5
E5A
330
1E
100
AcDbEntity
  8
PEG-L150AG
100
AcDbLine
 10
294.833333333333
 20
128.6666666666665
 30
0.0
 11
296.333333333333
 21
128.6666666666665
 31
0.0
  0
LINE
  5
E5B
330
1E
100
AcDbEntity
  8
PEG-L150AG
100
AcDbLine
 10
328.3333333333327
 20
128.6666666666665
 30
0.0
 11
329.833333333333
 21
128.6666666666665
 31
0.0
  0
LINE
  5
E5C
330
1E
100
AcDbEntity
  8
PEG-L150AG
100
AcDbLine
 10
329.833333333333
 20
118.6666666666666
 30
0.0
 11
335.7246097031633
 21
118.6666666666666
 31
0.0
  0
LINE
  5
E5D
330
1E
100
AcDbEntity
  8
PEG-L150AG
100
AcDbLine
 10
296.333333333333
 20
118.6666666666666
 30
0.0
 11
299.6666666666664
 21
118.6666666666666
 31
0.0
  0
LINE
  5
E5E
330
1E
100
AcDbEntity
  8
PEG-L150AG
100
AcDbLine
 10
330.3333333333331
 20
70.66666666666669
 30
0.0
 11
330.3333333333331
 21
72.06666666666662
 31
0.0
  0
LINE
  5
E5F
330
1E
100
AcDbEntity
  8
PEG-L150AG
100
AcDbLine
 10
294.3333333333331
 20
70.66666666666669
 30
0.0
 11
294.3333333333331
 21
72.06666666666662
 31
0.0
  0
LINE
  5
E60
330
1E
100
AcDbEntity
  8
PEG-L150AG
100
AcDbLine
 10
312.333333333333
 20
56.5
 30
0.0
 11
312.333333333333
 21
133.4999999999999
 31
0.0
  0
LINE
  5
E61
330
1E
100
AcDbEntity
  8
PEG-L150AG
100
AcDbLine
 10
55.16666666666663
 20
46.5
 30
0.0
 11
55.16666666666663
 21
54.83333333333334
 31
0.0
  0
LINE
  5
E62
330
1E
100
AcDbEntity
  8
PEG-L150AG
100
AcDbLine
 10
61.83333333333331
 20
50.0
 30
0.0
 11
61.83333333333331
 21
51.5
 31
0.0
  0
LINE
  5
E63
330
1E
100
AcDbEntity
  8
PEG-L150AG
100
AcDbLine
 10
48.5
 20
50.0
 30
0.0
 11
48.5
 21
51.5
 31
0.0
  0
LINE
  5
E64
330
1E
100
AcDbEntity
  8
PEG-L150AG
100
AcDbLine
 10
141.8333333333332
 20
46.5
 30
0.0
 11
141.8333333333332
 21
54.83333333333334
 31
0.0
  0
LINE
  5
E65
330
1E
100
AcDbEntity
  8
PEG-L150AG
100
AcDbLine
 10
135.1666666666665
 20
50.0
 30
0.0
 11
135.1666666666665
 21
51.5
 31
0.0
  0
LINE
  5
E66
330
1E
100
AcDbEntity
  8
PEG-L150AG
100
AcDbLine
 10
148.4999999999998
 20
50.0
 30
0.0
 11
148.4999999999998
 21
51.5
 31
0.0
  0
LINE
  5
E67
330
1E
100
AcDbEntity
  8
PEG-L150AG
100
AcDbLine
 10
263.9999999999997
 20
49.83333333333334
 30
0.0
 11
263.9999999999997
 21
51.33333333333334
 31
0.0
  0
LINE
  5
E68
330
1E
100
AcDbEntity
  8
PEG-L150AG
100
AcDbLine
 10
270.6666666666663
 20
46.33333333333334
 30
0.0
 11
270.6666666666663
 21
54.66666666666668
 31
0.0
  0
LINE
  5
E69
330
1E
100
AcDbEntity
  8
PEG-L150AG
100
AcDbLine
 10
277.333333333333
 20
49.83333333333334
 30
0.0
 11
277.333333333333
 21
51.33333333333334
 31
0.0
  0
LINE
  5
E6A
330
1E
100
AcDbEntity
  8
PEG-L150AG
100
AcDbLine
 10
360.6666666666663
 20
49.83333333333334
 30
0.0
 11
360.6666666666663
 21
51.33333333333334
 31
0.0
  0
LINE
  5
E6B
330
1E
100
AcDbEntity
  8
PEG-L150AG
100
AcDbLine
 10
353.9999999999997
 20
46.33333333333334
 30
0.0
 11
353.9999999999997
 21
54.66666666666668
 31
0.0
  0
LINE
  5
E6C
330
1E
100
AcDbEntity
  8
PEG-L150AG
100
AcDbLine
 10
347.3333333333329
 20
49.83333333333334
 30
0.0
 11
347.3333333333329
 21
51.33333333333334
 31
0.0
  0
LINE
  5
E6D
330
1E
100
AcDbEntity
  8
PEG-L150AG
100
AcDbLine
 10
324.9999999999997
 20
85.33333333333331
 30
0.0
 11
324.9999999999997
 21
81.84839602538483
 31
0.0
  0
LINE
  5
E6E
330
1E
100
AcDbEntity
  8
PEG-L150AG
100
AcDbLine
 10
299.6666666666664
 20
85.33333333333331
 30
0.0
 11
299.6666666666664
 21
81.84839602538483
 31
0.0
  0
LINE
  5
E6F
330
1E
100
AcDbEntity
  8
PEG-L150AG
100
AcDbLine
 10
298.9999999999998
 20
72.70058172890536
 30
0.0
 11
298.9999999999997
 21
72.06666666666662
 31
0.0
  0
LINE
  5
E70
330
1E
100
AcDbEntity
  8
PEG-L150AG
100
AcDbLine
 10
325.6666666666664
 20
72.70058172890536
 30
0.0
 11
325.6666666666664
 21
72.06666666666662
 31
0.0
  0
LINE
  5
E71
330
1E
100
AcDbEntity
  8
PEG-L150AG
100
AcDbLine
 10
8.5
 20
235.1666666666663
 30
0.0
 11
30.16666666666662
 21
235.1666666666663
 31
0.0
  0
LINE
  5
E72
330
1E
100
AcDbEntity
  8
PEG-L150AG
100
AcDbLine
 10
8.5
 20
245.1666666666663
 30
0.0
 11
30.16666666666667
 21
245.1666666666663
 31
0.0
  0
LINE
  5
E73
330
1E
100
AcDbEntity
  8
PEG-L150AG
100
AcDbLine
 10
0.6666666666666857
 20
240.1666666666665
 30
0.0
 11
43.75
 21
240.1666666666665
 31
0.0
  0
LINE
  5
E74
330
1E
100
AcDbEntity
  8
PEG-L150AG
100
AcDbLine
 10
15.16666666666667
 20
231.4999999999998
 30
0.0
 11
15.16666666666667
 21
248.6666666666665
 31
0.0
  0
LINE
  5
E75
330
1E
100
AcDbEntity
  8
PEG-L150AG
100
AcDbLine
 10
8.5
 20
242.4999999999998
 30
0.0
 11
21.83333333333337
 21
242.4999999999998
 31
0.0
  0
LINE
  5
E76
330
1E
100
AcDbEntity
  8
PEG-L150AG
100
AcDbLine
 10
21.83333333333337
 20
237.8333333333329
 30
0.0
 11
8.5
 21
237.8333333333329
 31
0.0
  0
LINE
  5
E77
330
1E
100
AcDbEntity
  8
PEG-L150AG
100
AcDbLine
 10
8.5
 20
246.1666666666665
 30
0.0
 11
8.5
 21
234.1666666666665
 31
0.0
  0
ARC
  5
E78
330
1E
100
AcDbEntity
  8
PEG-L150AG
100
AcDbCircle
 10
8.5
 20
240.1666666666665
 30
0.0
 40
4.999999999999995
100
AcDbArc
 50
90.0
 51
270.0
  0
ARC
  5
E79
330
1E
100
AcDbEntity
  8
PEG-L150AG
100
AcDbCircle
 10
8.5
 20
240.1666666666665
 30
0.0
 40
2.333333333333331
100
AcDbArc
 50
90.0
 51
270.0
  0
LINE
  5
E7A
330
1E
100
AcDbEntity
  8
PEG-L150AG
100
AcDbLine
 10
21.83333333333337
 20
234.1666666666665
 30
0.0
 11
21.83333333333337
 21
246.1666666666665
 31
0.0
  0
ARC
  5
E7B
330
1E
100
AcDbEntity
  8
PEG-L150AG
100
AcDbCircle
 10
21.83333333333337
 20
240.1666666666665
 30
0.0
 40
2.333333333333331
100
AcDbArc
 50
270.0
 51
90.0
  0
ARC
  5
E7C
330
1E
100
AcDbEntity
  8
PEG-L150AG
100
AcDbCircle
 10
35.16666666666663
 20
240.1666666666665
 30
0.0
 40
4.999999999999995
100
AcDbArc
 50
90.0
 51
270.0
  0
LINE
  5
E7D
330
1E
100
AcDbEntity
  8
PEG-L150AG
100
AcDbLine
 10
35.16666666666663
 20
231.4999999999998
 30
0.0
 11
35.16666666666663
 21
248.6666666666665
 31
0.0
  0
ARC
  5
E7E
330
1E
100
AcDbEntity
  8
PEG-L150AG
100
AcDbCircle
 10
35.16666666666663
 20
240.1666666666665
 30
0.0
 40
4.999999999999995
100
AcDbArc
 50
270.0
 51
90.0
  0
ARC
  5
E7F
330
1E
100
AcDbEntity
  8
PEG-L150AG
100
AcDbCircle
 10
161.8333333333332
 20
196.8333333333332
 30
0.0
 40
4.999999999999995
100
AcDbArc
 50
0.0
 51
180.0
  0
LINE
  5
E80
330
1E
100
AcDbEntity
  8
PEG-L150AG
100
AcDbLine
 10
156.8333333333332
 20
170.1666666666665
 30
0.0
 11
156.8333333333332
 21
191.8333333333331
 31
0.0
  0
LINE
  5
E81
330
1E
100
AcDbEntity
  8
PEG-L150AG
100
AcDbLine
 10
166.8333333333332
 20
170.1666666666665
 30
0.0
 11
166.8333333333332
 21
191.8333333333331
 31
0.0
  0
LINE
  5
E82
330
1E
100
AcDbEntity
  8
PEG-L150AG
100
AcDbLine
 10
153.1666666666665
 20
176.833333333333
 30
0.0
 11
170.3333333333332
 21
176.833333333333
 31
0.0
  0
LINE
  5
E83
330
1E
100
AcDbEntity
  8
PEG-L150AG
100
AcDbLine
 10
164.1666666666665
 20
170.1666666666665
 30
0.0
 11
164.1666666666665
 21
183.4999999999998
 31
0.0
  0
LINE
  5
E84
330
1E
100
AcDbEntity
  8
PEG-L150AG
100
AcDbLine
 10
159.4999999999996
 20
183.4999999999998
 30
0.0
 11
159.4999999999996
 21
170.1666666666665
 31
0.0
  0
LINE
  5
E85
330
1E
100
AcDbEntity
  8
PEG-L150AG
100
AcDbLine
 10
167.8333333333332
 20
170.1666666666665
 30
0.0
 11
155.833333333333
 21
170.1666666666665
 31
0.0
  0
ARC
  5
E86
330
1E
100
AcDbEntity
  8
PEG-L150AG
100
AcDbCircle
 10
161.8333333333332
 20
170.1666666666665
 30
0.0
 40
4.999999999999995
100
AcDbArc
 50
180.0
 51
0.0
  0
ARC
  5
E87
330
1E
100
AcDbEntity
  8
PEG-L150AG
100
AcDbCircle
 10
161.8333333333332
 20
170.1666666666665
 30
0.0
 40
2.333333333333331
100
AcDbArc
 50
180.0
 51
0.0
  0
LINE
  5
E88
330
1E
100
AcDbEntity
  8
PEG-L150AG
100
AcDbLine
 10
155.833333333333
 20
183.4999999999998
 30
0.0
 11
167.8333333333332
 21
183.4999999999998
 31
0.0
  0
ARC
  5
E89
330
1E
100
AcDbEntity
  8
PEG-L150AG
100
AcDbCircle
 10
161.8333333333332
 20
183.4999999999998
 30
0.0
 40
2.333333333333331
100
AcDbArc
 50
0.0
 51
180.0
  0
ARC
  5
E8A
330
1E
100
AcDbEntity
  8
PEG-L150AG
100
AcDbCircle
 10
161.8333333333332
 20
196.8333333333332
 30
0.0
 40
4.999999999999995
100
AcDbArc
 50
180.0
 51
0.0
  0
ARC
  5
E8B
330
1E
100
AcDbEntity
  8
PEG-L150AG
100
AcDbCircle
 10
135.1666666666665
 20
240.1666666666665
 30
0.0
 40
4.999999999999995
100
AcDbArc
 50
90.0
 51
270.0
  0
LINE
  5
E8C
330
1E
100
AcDbEntity
  8
PEG-L150AG
100
AcDbLine
 10
141.8333333333332
 20
231.4999999999999
 30
0.0
 11
141.8333333333332
 21
248.6666666666665
 31
0.0
  0
LINE
  5
E8D
330
1E
100
AcDbEntity
  8
PEG-L150AG
100
AcDbLine
 10
135.1666666666665
 20
235.1666666666663
 30
0.0
 11
156.8333333333332
 21
235.1666666666663
 31
0.0
  0
LINE
  5
E8E
330
1E
100
AcDbEntity
  8
PEG-L150AG
100
AcDbLine
 10
148.4999999999998
 20
234.1666666666665
 30
0.0
 11
148.4999999999998
 21
246.1666666666665
 31
0.0
  0
LINE
  5
E8F
330
1E
100
AcDbEntity
  8
PEG-L150AG
100
AcDbLine
 10
135.1666666666665
 20
246.1666666666665
 30
0.0
 11
135.1666666666665
 21
234.1666666666665
 31
0.0
  0
LINE
  5
E90
330
1E
100
AcDbEntity
  8
PEG-L150AG
100
AcDbLine
 10
148.4999999999998
 20
237.8333333333332
 30
0.0
 11
135.1666666666665
 21
237.8333333333332
 31
0.0
  0
LINE
  5
E91
330
1E
100
AcDbEntity
  8
PEG-L150AG
100
AcDbLine
 10
135.1666666666665
 20
242.4999999999998
 30
0.0
 11
148.4999999999998
 21
242.4999999999998
 31
0.0
  0
ARC
  5
E92
330
1E
100
AcDbEntity
  8
PEG-L150AG
100
AcDbCircle
 10
148.4999999999998
 20
240.1666666666665
 30
0.0
 40
2.333333333333331
100
AcDbArc
 50
270.0
 51
90.0
  0
ARC
  5
E93
330
1E
100
AcDbEntity
  8
PEG-L150AG
100
AcDbCircle
 10
135.1666666666665
 20
240.1666666666665
 30
0.0
 40
2.333333333333331
100
AcDbArc
 50
90.0
 51
270.0
  0
ARC
  5
E94
330
1E
100
AcDbEntity
  8
PEG-L150AG
100
AcDbCircle
 10
161.8333333333332
 20
240.1666666666665
 30
0.0
 40
4.999999999999995
100
AcDbArc
 50
270.0
 51
90.0
  0
ARC
  5
E95
330
1E
100
AcDbEntity
  8
PEG-L150AG
100
AcDbCircle
 10
161.8333333333332
 20
240.1666666666665
 30
0.0
 40
4.999999999999995
100
AcDbArc
 50
90.0
 51
270.0
  0
LINE
  5
E96
330
1E
100
AcDbEntity
  8
PEG-L150AG
100
AcDbLine
 10
294.3333333333331
 20
78.99999999999998
 30
0.0
 11
290.8333333333331
 21
78.99999999999998
 31
0.0
  0
LINE
  5
E97
330
1E
100
AcDbEntity
  8
PEG-L150AG
100
AcDbLine
 10
290.4999999999997
 20
78.66666666666666
 30
0.0
 11
290.4999999999997
 21
75.99999999999998
 31
0.0
  0
LINE
  5
E98
330
1E
100
AcDbEntity
  8
PEG-L150AG
100
AcDbLine
 10
294.833333333333
 20
79.33333333333331
 30
0.0
 11
294.3333333333331
 21
79.33333333333331
 31
0.0
  0
LINE
  5
E99
330
1E
100
AcDbEntity
  8
PEG-L150AG
100
AcDbLine
 10
294.3333333333331
 20
79.33333333333331
 30
0.0
 11
294.3333333333331
 21
75.99999999999998
 31
0.0
  0
LINE
  5
E9A
330
1E
100
AcDbEntity
  8
PEG-L150AG
100
AcDbLine
 10
294.3333333333331
 20
72.99999999999998
 30
0.0
 11
290.8333333333331
 21
72.99999999999998
 31
0.0
  0
LINE
  5
E9B
330
1E
100
AcDbEntity
  8
PEG-L150AG
100
AcDbLine
 10
290.4999999999997
 20
73.33333333333332
 30
0.0
 11
290.4999999999997
 21
75.99999999999998
 31
0.0
  0
LINE
  5
E9C
330
1E
100
AcDbEntity
  8
PEG-L150AG
100
AcDbLine
 10
294.3333333333331
 20
72.66666666666665
 30
0.0
 11
294.3333333333331
 21
75.99999999999998
 31
0.0
  0
LINE
  5
E9D
330
1E
100
AcDbEntity
  8
PEG-L150AG
100
AcDbLine
 10
294.833333333333
 20
72.66666666666665
 30
0.0
 11
294.3333333333331
 21
72.66666666666665
 31
0.0
  0
LINE
  5
E9E
330
1E
100
AcDbEntity
  8
PEG-L150AG
100
AcDbLine
 10
287.4999999999997
 20
75.99999999999998
 30
0.0
 11
297.833333333333
 21
75.99999999999998
 31
0.0
  0
LINE
  5
E9F
330
1E
100
AcDbEntity
  8
PEG-L150AG
100
AcDbLine
 10
290.4999999999997
 20
73.33333333333332
 30
0.0
 11
290.8333333333331
 21
72.99999999999998
 31
0.0
  0
LINE
  5
EA0
330
1E
100
AcDbEntity
  8
PEG-L150AG
100
AcDbLine
 10
290.4999999999997
 20
78.66666666666666
 30
0.0
 11
290.8333333333331
 21
78.99999999999998
 31
0.0
  0
LINE
  5
EA1
330
1E
100
AcDbEntity
  8
PEG-L150AG
100
AcDbLine
 10
290.8333333333331
 20
72.99999999999998
 30
0.0
 11
290.8333333333331
 21
78.99999999999998
 31
0.0
  0
LINE
  5
EA2
330
1E
100
AcDbEntity
  8
PEG-L150AG
100
AcDbLine
 10
330.3333333333331
 20
72.66666666666665
 30
0.0
 11
330.3333333333331
 21
75.99999999999998
 31
0.0
  0
LINE
  5
EA3
330
1E
100
AcDbEntity
  8
PEG-L150AG
100
AcDbLine
 10
329.8333333333331
 20
72.66666666666665
 30
0.0
 11
330.3333333333331
 21
72.66666666666665
 31
0.0
  0
LINE
  5
EA4
330
1E
100
AcDbEntity
  8
PEG-L150AG
100
AcDbLine
 10
330.3333333333331
 20
78.99999999999998
 30
0.0
 11
333.8333333333331
 21
78.99999999999998
 31
0.0
  0
LINE
  5
EA5
330
1E
100
AcDbEntity
  8
PEG-L150AG
100
AcDbLine
 10
330.3333333333331
 20
72.99999999999998
 30
0.0
 11
333.8333333333331
 21
72.99999999999998
 31
0.0
  0
LINE
  5
EA6
330
1E
100
AcDbEntity
  8
PEG-L150AG
100
AcDbLine
 10
337.1666666666663
 20
75.99999999999998
 30
0.0
 11
326.833333333333
 21
75.99999999999998
 31
0.0
  0
LINE
  5
EA7
330
1E
100
AcDbEntity
  8
PEG-L150AG
100
AcDbLine
 10
333.8333333333331
 20
72.99999999999998
 30
0.0
 11
333.8333333333331
 21
78.99999999999998
 31
0.0
  0
LINE
  5
EA8
330
1E
100
AcDbEntity
  8
PEG-L150AG
100
AcDbLine
 10
334.1666666666664
 20
78.66666666666666
 30
0.0
 11
334.1666666666664
 21
75.99999999999998
 31
0.0
  0
LINE
  5
EA9
330
1E
100
AcDbEntity
  8
PEG-L150AG
100
AcDbLine
 10
334.1666666666664
 20
73.33333333333332
 30
0.0
 11
333.8333333333331
 21
72.99999999999998
 31
0.0
  0
LINE
  5
EAA
330
1E
100
AcDbEntity
  8
PEG-L150AG
100
AcDbLine
 10
334.1666666666664
 20
73.33333333333332
 30
0.0
 11
334.1666666666664
 21
75.99999999999998
 31
0.0
  0
LINE
  5
EAB
330
1E
100
AcDbEntity
  8
PEG-L150AG
100
AcDbLine
 10
334.1666666666664
 20
78.66666666666666
 30
0.0
 11
333.8333333333331
 21
78.99999999999998
 31
0.0
  0
LINE
  5
EAC
330
1E
100
AcDbEntity
  8
PEG-L150AG
100
AcDbLine
 10
330.3333333333331
 20
79.33333333333331
 30
0.0
 11
330.3333333333331
 21
75.99999999999998
 31
0.0
  0
LINE
  5
EAD
330
1E
100
AcDbEntity
  8
PEG-L150AG
100
AcDbLine
 10
329.8333333333331
 20
79.33333333333331
 30
0.0
 11
330.3333333333331
 21
79.33333333333331
 31
0.0
  0
LINE
  5
EAE
330
1E
100
AcDbEntity
  8
PEG-L150AG
100
AcDbLine
 10
293.4999999999997
 20
88.99999999999996
 30
0.0
 11
293.4999999999997
 21
88.66666666666665
 31
0.0
  0
LINE
  5
EAF
330
1E
100
AcDbEntity
  8
PEG-L150AG
100
AcDbLine
 10
293.4999999999997
 20
81.99999999999997
 30
0.0
 11
293.4999999999997
 21
81.66666666666664
 31
0.0
  0
LINE
  5
EB0
330
1E
100
AcDbEntity
  8
PEG-L150AG
100
AcDbLine
 10
293.4999999999997
 20
81.99999999999997
 30
0.0
 11
293.4999999999997
 21
88.66666666666665
 31
0.0
  0
ARC
  5
EB1
330
1E
100
AcDbEntity
  8
PEG-L150AG
100
AcDbCircle
 10
294.833333333333
 20
88.99999999999996
 30
0.0
 40
1.333333333333332
100
AcDbArc
 50
90.0
 51
180.0
  0
ARC
  5
EB2
330
1E
100
AcDbEntity
  8
PEG-L150AG
100
AcDbCircle
 10
294.833333333333
 20
81.66666666666664
 30
0.0
 40
1.333333333333332
100
AcDbArc
 50
180.0
 51
270.0
  0
LINE
  5
EB3
330
1E
100
AcDbEntity
  8
PEG-L150AG
100
AcDbLine
 10
331.1666666666661
 20
81.99999999999997
 30
0.0
 11
331.1666666666661
 21
88.66666666666665
 31
0.0
  0
ARC
  5
EB4
330
1E
100
AcDbEntity
  8
PEG-L150AG
100
AcDbCircle
 10
329.8333333333331
 20
81.66666666666664
 30
0.0
 40
1.333333333333332
100
AcDbArc
 50
270.0
 51
0.0
  0
LINE
  5
EB5
330
1E
100
AcDbEntity
  8
PEG-L150AG
100
AcDbLine
 10
331.1666666666661
 20
81.99999999999997
 30
0.0
 11
331.1666666666661
 21
81.66666666666664
 31
0.0
  0
ARC
  5
EB6
330
1E
100
AcDbEntity
  8
PEG-L150AG
100
AcDbCircle
 10
329.8333333333331
 20
88.99999999999996
 30
0.0
 40
1.333333333333332
100
AcDbArc
 50
0.0
 51
90.0
  0
LINE
  5
EB7
330
1E
100
AcDbEntity
  8
PEG-L150AG
100
AcDbLine
 10
331.1666666666661
 20
88.99999999999996
 30
0.0
 11
331.1666666666661
 21
88.66666666666665
 31
0.0
  0
LINE
  5
EB8
330
1E
100
AcDbEntity
  8
PEG-L150AG
100
AcDbLine
 10
161.8333333333332
 20
235.1666666666663
 30
0.0
 11
156.8333333333332
 21
235.1666666666663
 31
0.0
  0
LINE
  5
EB9
330
1E
100
AcDbEntity
  8
PEG-L150AG
100
AcDbLine
 10
166.8333333333332
 20
196.833333333333
 30
0.0
 11
166.8333333333332
 21
191.8333333333331
 31
0.0
  0
LINE
  5
EBA
330
1E
100
AcDbEntity
  8
PEG-L150AG
100
AcDbLine
 10
156.8333333333332
 20
196.833333333333
 30
0.0
 11
156.8333333333332
 21
191.8333333333331
 31
0.0
  0
LINE
  5
EBB
330
1E
100
AcDbEntity
  8
PEG-L150AG
100
AcDbLine
 10
30.16666666666665
 20
191.8333333333331
 30
0.0
 11
30.16666666666665
 21
196.833333333333
 31
0.0
  0
LINE
  5
EBC
330
1E
100
AcDbEntity
  8
PEG-L150AG
100
AcDbLine
 10
40.16666666666664
 20
196.833333333333
 30
0.0
 11
40.16666666666664
 21
191.8333333333331
 31
0.0
  0
LINE
  5
EBD
330
1E
100
AcDbEntity
  8
PEG-L150AG
100
AcDbLine
 10
35.16666666666663
 20
245.1666666666663
 30
0.0
 11
30.16666666666667
 21
245.1666666666663
 31
0.0
  0
LINE
  5
EBE
330
1E
100
AcDbEntity
  8
PEG-L150AG
100
AcDbLine
 10
30.16666666666667
 20
235.1666666666663
 30
0.0
 11
35.16666666666663
 21
235.1666666666663
 31
0.0
  0
LINE
  5
F70
330
1E
100
AcDbEntity
  8
PEG-L150AG
100
AcDbLine
 10
333.9999999999997
 20
47.0
 30
0.0
 11
333.9999999999997
 21
71.33333333333331
 31
0.0
  0
LINE
  5
F82
330
1E
100
AcDbEntity
  8
PEG-L150AG
100
AcDbLine
 10
207.1666666666664
 20
175.3333333333332
 30
0.0
 11
228.2499999999997
 21
175.3333333333332
 31
0.0
  0
LINE
  5
F83
330
1E
100
AcDbEntity
  8
PEG-L150AG
100
AcDbLine
 10
207.1666666666664
 20
174.6666666666664
 30
0.0
 11
228.2499999999997
 21
174.6666666666664
 31
0.0
  0
LINE
  5
F84
330
1E
100
AcDbEntity
  8
PEG-L150AG
100
AcDbLine
 10
207.1666666666664
 20
174.6666666666664
 30
0.0
 11
207.1666666666664
 21
175.3333333333332
 31
0.0
  0
LINE
  5
F85
330
1E
100
AcDbEntity
  8
PEG-L150AG
100
AcDbLine
 10
228.2499999999997
 20
175.9999999999998
 30
0.0
 11
233.4166666666664
 21
174.9999999999998
 31
0.0
  0
LINE
  5
F86
330
1E
100
AcDbEntity
  8
PEG-L150AG
100
AcDbLine
 10
233.4166666666664
 20
174.9999999999998
 30
0.0
 11
228.2499999999997
 21
173.9999999999996
 31
0.0
  0
LINE
  5
F87
330
1E
100
AcDbEntity
  8
PEG-L150AG
100
AcDbLine
 10
228.2499999999997
 20
173.9999999999996
 30
0.0
 11
228.2499999999997
 21
174.6666666666664
 31
0.0
  0
LINE
  5
F88
330
1E
100
AcDbEntity
  8
PEG-L150AG
100
AcDbLine
 10
228.2499999999997
 20
175.3333333333332
 30
0.0
 11
228.2499999999997
 21
175.9999999999998
 31
0.0
  0
TEXT
  5
F89
330
1E
100
AcDbEntity
  8
PEG-L150AG
100
AcDbText
 10
205.7249999999998
 20
177.1249999999999
 30
0.0
 40
2.699999999999997
  1
 뛥
100
AcDbText
  0
TEXT
  5
F8A
330
1E
100
AcDbEntity
  8
PEG-L150AG
100
AcDbText
 10
213.5249999999998
 20
177.1249999999999
 30
0.0
 40
2.699999999999997
  1
껬
100
AcDbText
  0
TEXT
  5
F8B
330
1E
100
AcDbEntity
  8
PEG-L150AG
100
AcDbText
 10
219.0749999999998
 20
177.1249999999999
 30
0.0
 40
2.699999999999997
  1
뇒
100
AcDbText
  0
TEXT
  5
F8C
330
1E
100
AcDbEntity
  8
PEG-L150AG
100
AcDbText
 10
224.0249999999998
 20
177.1249999999999
 30
0.0
 40
2.699999999999997
  1
몎
100
AcDbText
  0
LINE
  5
F8E
330
1E
100
AcDbEntity
  8
PEG-L150AG
100
AcDbLine
 10
293.6666666666662
 20
65.83333333333333
 30
0.0
 11
293.6666666666662
 21
68.49999999999998
 31
0.0
  0
LINE
  5
F8F
330
1E
100
AcDbEntity
  8
PEG-L150AG
100
AcDbLine
 10
292.3333333333331
 20
65.83333333333333
 30
0.0
 11
292.3333333333331
 21
68.49999999999998
 31
0.0
  0
LINE
  5
F90
330
1E
100
AcDbEntity
  8
PEG-L150AG
100
AcDbLine
 10
287.6666666666665
 20
65.83333333333333
 30
0.0
 11
287.6666666666665
 21
68.49999999999998
 31
0.0
  0
LINE
  5
F91
330
1E
100
AcDbEntity
  8
PEG-L150AG
100
AcDbLine
 10
288.9999999999997
 20
68.49999999999998
 30
0.0
 11
288.9999999999997
 21
65.83333333333333
 31
0.0
  0
LINE
  5
F92
330
1E
100
AcDbEntity
  8
PEG-L150AG
100
AcDbLine
 10
290.6666666666664
 20
65.83333333333333
 30
0.0
 11
287.3333333333331
 21
65.83333333333333
 31
0.0
  0
LINE
  5
F93
330
1E
100
AcDbEntity
  8
PEG-L150AG
100
AcDbLine
 10
287.3333333333331
 20
65.83333333333333
 30
0.0
 11
287.3333333333331
 21
65.33333333333333
 31
0.0
  0
LINE
  5
F94
330
1E
100
AcDbEntity
  8
PEG-L150AG
100
AcDbLine
 10
290.6666666666664
 20
65.83333333333333
 30
0.0
 11
293.9999999999997
 21
65.83333333333333
 31
0.0
  0
LINE
  5
F95
330
1E
100
AcDbEntity
  8
PEG-L150AG
100
AcDbLine
 10
293.9999999999997
 20
65.83333333333333
 30
0.0
 11
293.9999999999997
 21
65.33333333333333
 31
0.0
  0
LINE
  5
F96
330
1E
100
AcDbEntity
  8
PEG-L150AG
100
AcDbLine
 10
292.9999999999997
 20
68.83333333333331
 30
0.0
 11
288.3333333333331
 21
68.83333333333331
 31
0.0
  0
ARC
  5
F97
330
1E
100
AcDbEntity
  8
PEG-L150AG
100
AcDbCircle
 10
290.6666666666664
 20
64.49999999999999
 30
0.0
 40
4.333333333333328
100
AcDbArc
 50
67.38013505195954
 51
112.6198649480402
  0
ARC
  5
F98
330
1E
100
AcDbEntity
  8
PEG-L150AG
100
AcDbCircle
 10
288.3333333333331
 20
67.99999999999998
 30
0.0
 40
0.8333333333333325
100
AcDbArc
 50
36.86989764584402
 51
143.1301023541559
  0
ARC
  5
F99
330
1E
100
AcDbEntity
  8
PEG-L150AG
100
AcDbCircle
 10
292.9999999999997
 20
67.99999999999998
 30
0.0
 40
0.8333333333333325
100
AcDbArc
 50
36.86989764584402
 51
143.1301023541559
  0
ARC
  5
F9A
330
1E
100
AcDbEntity
  8
PEG-L150AG
100
AcDbCircle
 10
333.9999999999997
 20
64.49999999999999
 30
0.0
 40
4.333333333333328
100
AcDbArc
 50
67.38013505195954
 51
112.6198649480402
  0
LINE
  5
F9B
330
1E
100
AcDbEntity
  8
PEG-L150AG
100
AcDbLine
 10
333.9999999999997
 20
65.83333333333333
 30
0.0
 11
330.6666666666663
 21
65.83333333333333
 31
0.0
  0
LINE
  5
F9C
330
1E
100
AcDbEntity
  8
PEG-L150AG
100
AcDbLine
 10
336.333333333333
 20
68.83333333333331
 30
0.0
 11
331.6666666666664
 21
68.83333333333331
 31
0.0
  0
LINE
  5
F9D
330
1E
100
AcDbEntity
  8
PEG-L150AG
100
AcDbLine
 10
332.333333333333
 20
68.49999999999998
 30
0.0
 11
332.333333333333
 21
65.83333333333333
 31
0.0
  0
LINE
  5
F9E
330
1E
100
AcDbEntity
  8
PEG-L150AG
100
AcDbLine
 10
330.9999999999997
 20
65.83333333333333
 30
0.0
 11
330.9999999999997
 21
68.49999999999998
 31
0.0
  0
LINE
  5
F9F
330
1E
100
AcDbEntity
  8
PEG-L150AG
100
AcDbLine
 10
330.6666666666663
 20
65.83333333333333
 30
0.0
 11
330.6666666666663
 21
65.33333333333333
 31
0.0
  0
ARC
  5
FA0
330
1E
100
AcDbEntity
  8
PEG-L150AG
100
AcDbCircle
 10
331.6666666666664
 20
67.99999999999998
 30
0.0
 40
0.8333333333333325
100
AcDbArc
 50
36.86989764584402
 51
143.1301023541559
  0
LINE
  5
FA1
330
1E
100
AcDbEntity
  8
PEG-L150AG
100
AcDbLine
 10
336.9999999999997
 20
65.83333333333333
 30
0.0
 11
336.9999999999997
 21
68.49999999999998
 31
0.0
  0
LINE
  5
FA2
330
1E
100
AcDbEntity
  8
PEG-L150AG
100
AcDbLine
 10
335.6666666666664
 20
65.83333333333333
 30
0.0
 11
335.6666666666664
 21
68.49999999999998
 31
0.0
  0
LINE
  5
FA3
330
1E
100
AcDbEntity
  8
PEG-L150AG
100
AcDbLine
 10
337.333333333333
 20
65.83333333333333
 30
0.0
 11
337.333333333333
 21
65.33333333333333
 31
0.0
  0
LINE
  5
FA4
330
1E
100
AcDbEntity
  8
PEG-L150AG
100
AcDbLine
 10
333.9999999999997
 20
65.83333333333333
 30
0.0
 11
337.333333333333
 21
65.83333333333333
 31
0.0
  0
ARC
  5
FA5
330
1E
100
AcDbEntity
  8
PEG-L150AG
100
AcDbCircle
 10
336.333333333333
 20
67.99999999999998
 30
0.0
 40
0.8333333333333325
100
AcDbArc
 50
36.86989764584402
 51
143.1301023541559
  0
LINE
  5
FA6
330
1E
100
AcDbEntity
  8
PEG-L150AG
100
AcDbLine
 10
35.16666666666665
 20
206.0
 30
0.0
 11
35.16666666666665
 21
161.6666666666665
 31
0.0
  0
LINE
  5
FA7
330
1E
100
AcDbEntity
  8
PEG-L150AG
100
AcDbLine
 10
161.8333333333332
 20
212.0
 30
0.0
 11
161.8333333333332
 21
224.0
 31
0.0
  0
LINE
  5
FA8
330
1E
100
AcDbEntity
  8
PEG-L150AG
100
AcDbLine
 10
170.0890924810015
 20
240.1666666666665
 30
0.0
 11
127.1666666666664
 21
240.1666666666665
 31
0.0
  0
TEXT
  5
FCB
330
1E
100
AcDbEntity
  8
PEG-L150AG
100
AcDbText
 10
216.5813210032421
 20
143.3990681888273
 30
0.0
 40
3.0
  1
PEF-150ag
100
AcDbText
  0
ENDSEC
  0
SECTION
  2
OBJECTS
  0
DICTIONARY
  5
C
330
0
100
AcDbDictionary
  3
ACAD_GROUP
350
D
  3
ACAD_LAYOUT
350
19
  3
ACAD_MLINESTYLE
350
16
  3
ACAD_PLOTSETTINGS
350
18
  3
ACAD_PLOTSTYLENAME
350
E
  3
DWGPROPS
350
11CD
  3
ACDBHEADERROUNDTRIPXREC
350
1227
  0
DICTIONARY
  5
11F2
330
1E
100
AcDbDictionary
280
     1
  3
ACAD_LAYOUTSELFREF
360
1248
  0
DICTIONARY
  5
11F0
330
1A
100
AcDbDictionary
280
     1
  3
ACAD_LAYOUTSELFREF
360
1247
  0
DICTIONARY
  5
D
102
{ACAD_REACTORS
330
C
102
}
330
C
100
AcDbDictionary
  0
DICTIONARY
  5
19
102
{ACAD_REACTORS
330
C
102
}
330
C
100
AcDbDictionary
  0
DICTIONARY
  5
16
102
{ACAD_REACTORS
330
C
102
}
330
C
100
AcDbDictionary
  3
STANDARD
350
17
  0
DICTIONARY
  5
18
102
{ACAD_REACTORS
330
C
102
}
330
C
100
AcDbDictionary
  0
ACDBDICTIONARYWDFLT
  5
E
102
{ACAD_REACTORS
330
C
102
}
330
C
100
AcDbDictionary
281
     1
  3
Normal
350
F
100
AcDbDictionaryWithDefault
340
F
  0
XRECORD
  5
11CD
102
{ACAD_REACTORS
330
C
102
}
330
C
100
AcDbXrecord
  1
DWGPROPS COOKIE
  2

  3

  4

  6

  7

  8
한신
  9

300
=
301
=
302
=
303
=
304
=
305
=
306
=
307
=
308
=
309
=
 40
0.3954953703703703
 41
2450308.701059025
 42
2451814.646468518
  1

 90
        0
  0
DICTIONARY
  5
1227
102
{ACAD_REACTORS
330
C
102
}
330
C
100
AcDbDictionary
  3
TSTACKALIGN
350
1228
  3
TSTACKSIZE
350
1229
  3
HYPERLINKBASE
350
122A
  3
STYLESHEET
350
122B
  3
LAYOUTDICT
350
122C
  3
PLOTSETDICT
350
122D
  3
PLOTSTYLNAMDICT
350
122E
  3
LWETCUNION
350
122F
  3
INSUNITS
350
1230
  3
CEPSNTYPE
350
1231
  3
FINGERPRINTGUID
350
1232
  3
VERSIONGUID
350
1233
  3
PSVPSCALE
350
1234
  3
PUCSORTHOREF
350
1235
  3
PUCSORTHOVIEW
350
1236
  3
PUCSBASE
350
1237
  3
PUCSORGTOP
350
1238
  3
PUCSORGBOTTOM
350
1239
  3
PUCSORGLEFT
350
123A
  3
PUCSORGRIGHT
350
123B
  3
PUCSORGFRONT
350
123C
  3
PUCSORGBACK
350
123D
  3
UCSORTHOREF
350
123E
  3
UCSORTHOVIEW
350
123F
  3
UCSBASE
350
1240
  3
UCSORGTOP
350
1241
  3
UCSORGBOTTOM
350
1242
  3
UCSORGLEFT
350
1243
  3
UCSORGRIGHT
350
1244
  3
UCSORGFRONT
350
1245
  3
UCSORGBACK
350
1246
  0
XRECORD
  5
1248
102
{ACAD_REACTORS
330
11F2
102
}
330
11F2
100
AcDbXrecord
340
1E
  0
XRECORD
  5
1247
102
{ACAD_REACTORS
330
11F0
102
}
330
11F0
100
AcDbXrecord
340
1A
  0
MLINESTYLE
  5
17
102
{ACAD_REACTORS
330
16
102
}
330
16
100
AcDbMlineStyle
  2
STANDARD
 70
     0
  3

 62
   256
 51
90.0
 52
90.0
 71
     2
 49
0.5
 62
   256
  6
BYLAYER
 49
-0.5
 62
   256
  6
BYLAYER
  0
ACDBPLACEHOLDER
  5
F
102
{ACAD_REACTORS
330
E
102
}
330
E
100
AcDbPlaceHolder
280
     0
  0
XRECORD
  5
1228
102
{ACAD_REACTORS
330
1227
102
}
330
1227
100
AcDbXrecord
 90
        1
  0
XRECORD
  5
1229
102
{ACAD_REACTORS
330
1227
102
}
330
1227
100
AcDbXrecord
 90
       70
  0
XRECORD
  5
122A
102
{ACAD_REACTORS
330
1227
102
}
330
1227
100
AcDbXrecord
  1

  0
XRECORD
  5
122B
102
{ACAD_REACTORS
330
1227
102
}
330
1227
100
AcDbXrecord
  1

  0
XRECORD
  5
122C
102
{ACAD_REACTORS
330
1227
102
}
330
1227
100
AcDbXrecord
340
19
  0
XRECORD
  5
122D
102
{ACAD_REACTORS
330
1227
102
}
330
1227
100
AcDbXrecord
340
18
  0
XRECORD
  5
122E
102
{ACAD_REACTORS
330
1227
102
}
330
1227
100
AcDbXrecord
340
E
  0
XRECORD
  5
122F
102
{ACAD_REACTORS
330
1227
102
}
330
1227
100
AcDbXrecord
 90
    14877
  0
XRECORD
  5
1230
102
{ACAD_REACTORS
330
1227
102
}
330
1227
100
AcDbXrecord
 90
        0
  0
XRECORD
  5
1231
102
{ACAD_REACTORS
330
1227
102
}
330
1227
100
AcDbXrecord
 90
        0
  0
XRECORD
  5
1232
102
{ACAD_REACTORS
330
1227
102
}
330
1227
100
AcDbXrecord
  1
{2E5998B8-6201-11D4-BC29-A0594FC10001}
  0
XRECORD
  5
1233
102
{ACAD_REACTORS
330
1227
102
}
330
1227
100
AcDbXrecord
  1
{B2C57FF9-B280-4462-9125-A954B1457FF4}
  0
XRECORD
  5
1234
102
{ACAD_REACTORS
330
1227
102
}
330
1227
100
AcDbXrecord
 40
0.0
  0
XRECORD
  5
1235
102
{ACAD_REACTORS
330
1227
102
}
330
1227
100
AcDbXrecord
340
0
  0
XRECORD
  5
1236
102
{ACAD_REACTORS
330
1227
102
}
330
1227
100
AcDbXrecord
 70
     0
  0
XRECORD
  5
1237
102
{ACAD_REACTORS
330
1227
102
}
330
1227
100
AcDbXrecord
340
0
  0
XRECORD
  5
1238
102
{ACAD_REACTORS
330
1227
102
}
330
1227
100
AcDbXrecord
 10
0.0
 20
0.0
 30
0.0
  0
XRECORD
  5
1239
102
{ACAD_REACTORS
330
1227
102
}
330
1227
100
AcDbXrecord
 10
0.0
 20
0.0
 30
0.0
  0
XRECORD
  5
123A
102
{ACAD_REACTORS
330
1227
102
}
330
1227
100
AcDbXrecord
 10
0.0
 20
0.0
 30
0.0
  0
XRECORD
  5
123B
102
{ACAD_REACTORS
330
1227
102
}
330
1227
100
AcDbXrecord
 10
0.0
 20
0.0
 30
0.0
  0
XRECORD
  5
123C
102
{ACAD_REACTORS
330
1227
102
}
330
1227
100
AcDbXrecord
 10
0.0
 20
0.0
 30
0.0
  0
XRECORD
  5
123D
102
{ACAD_REACTORS
330
1227
102
}
330
1227
100
AcDbXrecord
 10
0.0
 20
0.0
 30
0.0
  0
XRECORD
  5
123E
102
{ACAD_REACTORS
330
1227
102
}
330
1227
100
AcDbXrecord
340
0
  0
XRECORD
  5
123F
102
{ACAD_REACTORS
330
1227
102
}
330
1227
100
AcDbXrecord
 70
     0
  0
XRECORD
  5
1240
102
{ACAD_REACTORS
330
1227
102
}
330
1227
100
AcDbXrecord
340
0
  0
XRECORD
  5
1241
102
{ACAD_REACTORS
330
1227
102
}
330
1227
100
AcDbXrecord
 10
0.0
 20
0.0
 30
0.0
  0
XRECORD
  5
1242
102
{ACAD_REACTORS
330
1227
102
}
330
1227
100
AcDbXrecord
 10
0.0
 20
0.0
 30
0.0
  0
XRECORD
  5
1243
102
{ACAD_REACTORS
330
1227
102
}
330
1227
100
AcDbXrecord
 10
0.0
 20
0.0
 30
0.0
  0
XRECORD
  5
1244
102
{ACAD_REACTORS
330
1227
102
}
330
1227
100
AcDbXrecord
 10
0.0
 20
0.0
 30
0.0
  0
XRECORD
  5
1245
102
{ACAD_REACTORS
330
1227
102
}
330
1227
100
AcDbXrecord
 10
0.0
 20
0.0
 30
0.0
  0
XRECORD
  5
1246
102
{ACAD_REACTORS
330
1227
102
}
330
1227
100
AcDbXrecord
 10
0.0
 20
0.0
 30
0.0
  0
ENDSEC
  0
EOF
