  0
SECTION
  2
HEADER
  9
$ACADVER
  1
AC1014
  9
$ACADMAINTVER
 70
     9
  9
$DWGCODEPAGE
  3
ANSI_949
  9
$INSBASE
 10
0.0
 20
0.0
 30
0.0
  9
$EXTMIN
 10
63.21751587188032
 20
130.0355543988239
 30
-0.000000000000013
  9
$EXTMAX
 10
713.4280107380213
 20
462.7496349564166
 30
0.0000000000000023
  9
$LIMMIN
 10
10.0
 20
10.0
  9
$LIMMAX
 10
771.0
 20
560.0
  9
$ORTHOMODE
 70
     1
  9
$REGENMODE
 70
     1
  9
$FILLMODE
 70
     1
  9
$QTEXTMODE
 70
     0
  9
$MIRRTEXT
 70
     1
  9
$DRAGMODE
 70
     2
  9
$LTSCALE
 40
10.0
  9
$OSMODE
 70
    37
  9
$ATTMODE
 70
     1
  9
$TEXTSIZE
 40
4.0
  9
$TRACEWID
 40
0.05
  9
$TEXTSTYLE
  7
STANDARD
  9
$CLAYER
  8
0
  9
$CELTYPE
  6
BYLAYER
  9
$CECOLOR
 62
   256
  9
$CELTSCALE
 40
1.0
  9
$DELOBJ
 70
     1
  9
$DISPSILH
 70
     0
  9
$DIMSCALE
 40
1.5
  9
$DIMASZ
 40
2.299999999999998
  9
$DIMEXO
 40
0.5
  9
$DIMDLI
 40
8.0
  9
$DIMRND
 40
0.0
  9
$DIMDLE
 40
0.0
  9
$DIMEXE
 40
1.0
  9
$DIMTP
 40
0.0
  9
$DIMTM
 40
0.000000001
  9
$DIMTXT
 40
2.299999999999998
  9
$DIMCEN
 40
0.09
  9
$DIMTSZ
 40
0.0
  9
$DIMTOL
 70
     0
  9
$DIMLIM
 70
     0
  9
$DIMTIH
 70
     0
  9
$DIMTOH
 70
     0
  9
$DIMSE1
 70
     0
  9
$DIMSE2
 70
     0
  9
$DIMTAD
 70
     1
  9
$DIMZIN
 70
     8
  9
$DIMBLK
  1

  9
$DIMASO
 70
     1
  9
$DIMSHO
 70
     1
  9
$DIMPOST
  1

  9
$DIMAPOST
  1

  9
$DIMALT
 70
     0
  9
$DIMALTD
 70
     1
  9
$DIMALTF
 40
25.4
  9
$DIMLFAC
 40
1.0
  9
$DIMTOFL
 70
     1
  9
$DIMTVP
 40
0.0
  9
$DIMTIX
 70
     0
  9
$DIMSOXD
 70
     0
  9
$DIMSAH
 70
     0
  9
$DIMBLK1
  1

  9
$DIMBLK2
  1

  9
$DIMSTYLE
  2
STANDARD
  9
$DIMCLRD
 70
     5
  9
$DIMCLRE
 70
     5
  9
$DIMCLRT
 70
     3
  9
$DIMTFAC
 40
0.7
  9
$DIMGAP
 40
0.5
  9
$DIMJUST
 70
     0
  9
$DIMSD1
 70
     0
  9
$DIMSD2
 70
     0
  9
$DIMTOLJ
 70
     1
  9
$DIMTZIN
 70
     0
  9
$DIMALTZ
 70
     0
  9
$DIMALTTZ
 70
     0
  9
$DIMFIT
 70
     3
  9
$DIMUPT
 70
     1
  9
$DIMUNIT
 70
     2
  9
$DIMDEC
 70
     1
  9
$DIMTDEC
 70
     1
  9
$DIMALTU
 70
     2
  9
$DIMALTTD
 70
     1
  9
$DIMTXSTY
  7
STANDARD
  9
$DIMAUNIT
 70
     0
  9
$LUNITS
 70
     2
  9
$LUPREC
 70
     4
  9
$SKETCHINC
 40
0.1
  9
$FILLETRAD
 40
0.5
  9
$AUNITS
 70
     0
  9
$AUPREC
 70
     0
  9
$MENU
  1
.
  9
$ELEVATION
 40
0.0
  9
$PELEVATION
 40
0.0
  9
$THICKNESS
 40
0.0
  9
$LIMCHECK
 70
     0
  9
$BLIPMODE
 70
     0
  9
$CHAMFERA
 40
0.5
  9
$CHAMFERB
 40
0.5
  9
$CHAMFERC
 40
1.0
  9
$CHAMFERD
 40
0.0
  9
$SKPOLY
 70
     0
  9
$TDCREATE
 40
2451745.473101736
  9
$TDUPDATE
 40
2452761.347055845
  9
$TDINDWG
 40
0.4135552546
  9
$TDUSRTIMER
 40
0.4135550694
  9
$USRTIMER
 70
     1
  9
$ANGBASE
 50
0.0
  9
$ANGDIR
 70
     0
  9
$PDMODE
 70
     0
  9
$PDSIZE
 40
0.0
  9
$PLINEWID
 40
0.0
  9
$COORDS
 70
     2
  9
$SPLFRAME
 70
     0
  9
$SPLINETYPE
 70
     6
  9
$SPLINESEGS
 70
     8
  9
$ATTDIA
 70
     0
  9
$ATTREQ
 70
     1
  9
$HANDLING
 70
 12289
  9
$HANDSEED
  5
10EE
  9
$SURFTAB1
 70
     6
  9
$SURFTAB2
 70
     6
  9
$SURFTYPE
 70
     6
  9
$SURFU
 70
     6
  9
$SURFV
 70
     6
  9
$UCSNAME
  2

  9
$UCSORG
 10
0.0
 20
0.0
 30
0.0
  9
$UCSXDIR
 10
1.0
 20
0.0
 30
0.0
  9
$UCSYDIR
 10
0.0
 20
1.0
 30
0.0
  9
$PUCSNAME
  2

  9
$PUCSORG
 10
0.0
 20
0.0
 30
0.0
  9
$PUCSXDIR
 10
1.0
 20
0.0
 30
0.0
  9
$PUCSYDIR
 10
0.0
 20
1.0
 30
0.0
  9
$USERI1
 70
     0
  9
$USERI2
 70
     0
  9
$USERI3
 70
     0
  9
$USERI4
 70
     0
  9
$USERI5
 70
     0
  9
$USERR1
 40
0.0
  9
$USERR2
 40
0.0
  9
$USERR3
 40
0.0
  9
$USERR4
 40
0.0
  9
$USERR5
 40
0.0
  9
$WORLDVIEW
 70
     1
  9
$SHADEDGE
 70
     3
  9
$SHADEDIF
 70
    70
  9
$TILEMODE
 70
     1
  9
$MAXACTVP
 70
    64
  9
$PINSBASE
 10
0.0
 20
0.0
 30
0.0
  9
$PLIMCHECK
 70
     0
  9
$PEXTMIN
 10
1.000000000000000E+20
 20
1.000000000000000E+20
 30
1.000000000000000E+20
  9
$PEXTMAX
 10
-1.000000000000000E+20
 20
-1.000000000000000E+20
 30
-1.000000000000000E+20
  9
$PLIMMIN
 10
0.0
 20
0.0
  9
$PLIMMAX
 10
12.0
 20
9.0
  9
$UNITMODE
 70
     0
  9
$VISRETAIN
 70
     1
  9
$PLINEGEN
 70
     0
  9
$PSLTSCALE
 70
     1
  9
$TREEDEPTH
 70
  3020
  9
$PICKSTYLE
 70
     1
  9
$CMLSTYLE
  2
STANDARD
  9
$CMLJUST
 70
     0
  9
$CMLSCALE
 40
1.0
  9
$PROXYGRAPHICS
 70
     1
  9
$MEASUREMENT
 70
     0
  0
ENDSEC
  0
SECTION
  2
CLASSES
  0
CLASS
  1
ACDBDICTIONARYWDFLT
  2
AcDbDictionaryWithDefault
  3
AutoCAD 2000
 90
        0
280
     0
281
     0
  0
CLASS
  1
ACDBPLACEHOLDER
  2
AcDbPlaceHolder
  3
AutoCAD 2000
 90
        0
280
     0
281
     0
  0
CLASS
  1
LAYOUT
  2
AcDbLayout
  3
AutoCAD 2000
 90
        0
280
     0
281
     0
  0
CLASS
  1
LONG_TRANSACTION
  2
AcDbLongTransaction
  3
AutoCAD 2000
 90
        0
280
     0
281
     0
  0
CLASS
  1
LWPOLYLINE
  2
AcDbPolyline
  3
AutoCAD 2000
 90
        0
280
     0
281
     1
  0
CLASS
  1
HATCH
  2
AcDbHatch
  3
AutoCAD 2000
 90
        0
280
     0
281
     1
  0
CLASS
  1
XRECORD
  2
AcDbXrecord
  3
AutoCAD 2000
 90
        0
280
     0
281
     0
  0
CLASS
  1
LONG_TRANSACTION
  2
AcDbLongTransaction
  3
AutoCAD 2000
 90
        0
280
     0
281
     0
  0
CLASS
  1
LWPOLYLINE
  2
AcDbPolyline
  3
AutoCAD 2000
 90
        0
280
     0
281
     1
  0
CLASS
  1
HATCH
  2
AcDbHatch
  3
AutoCAD 2000
 90
        0
280
     0
281
     1
  0
CLASS
  1
XRECORD
  2
AcDbXrecord
  3
AutoCAD 2000
 90
        0
280
     0
281
     0
  0
CLASS
  1
LONG_TRANSACTION
  2
AcDbLongTransaction
  3
AutoCAD 2000
 90
        0
280
     0
281
     0
  0
CLASS
  1
LWPOLYLINE
  2
AcDbPolyline
  3
AutoCAD 2000
 90
        0
280
     0
281
     1
  0
CLASS
  1
HATCH
  2
AcDbHatch
  3
AutoCAD 2000
 90
        0
280
     0
281
     1
  0
CLASS
  1
XRECORD
  2
AcDbXrecord
  3
AutoCAD 2000
 90
        0
280
     0
281
     0
  0
ENDSEC
  0
SECTION
  2
TABLES
  0
TABLE
  2
VPORT
  5
8
330
0
100
AcDbSymbolTable
 70
     2
  0
VPORT
  5
10CB
330
8
100
AcDbSymbolTableRecord
100
AcDbViewportTableRecord
  2
*ACTIVE
 70
     0
 10
0.0
 20
0.0
 11
1.0
 21
1.0
 12
388.3227633049508
 22
296.3925946776203
 13
0.0
 23
0.0
 14
1.0
 24
1.0
 15
5.0
 25
5.0
 16
0.0
 26
0.0
 36
1.0
 17
0.0
 27
0.0
 37
0.0
 40
440.9050079146391
 41
1.481743227326266
 42
50.0
 43
0.0
 44
0.0
 50
0.0
 51
0.0
 71
     0
 72
  2000
 73
     1
 74
     3
 75
     0
 76
     0
 77
     0
 78
     0
  0
ENDTAB
  0
TABLE
  2
LTYPE
  5
5
330
0
100
AcDbSymbolTable
 70
     3
  0
LTYPE
  5
14
330
5
100
AcDbSymbolTableRecord
100
AcDbLinetypeTableRecord
  2
BYBLOCK
 70
     0
  3

 72
    65
 73
     0
 40
0.0
  0
LTYPE
  5
15
330
5
100
AcDbSymbolTableRecord
100
AcDbLinetypeTableRecord
  2
BYLAYER
 70
     0
  3

 72
    65
 73
     0
 40
0.0
  0
LTYPE
  5
16
330
5
100
AcDbSymbolTableRecord
100
AcDbLinetypeTableRecord
  2
CONTINUOUS
 70
     0
  3
Solid line
 72
    65
 73
     0
 40
0.0
  0
LTYPE
  5
45E
330
5
100
AcDbSymbolTableRecord
100
AcDbLinetypeTableRecord
  2
CENTER2
 70
     0
  3
Center (.5x) ___ _ ___ _ ___ _ ___ _ ___ _ ___
 72
    65
 73
     4
 40
1.125
 49
0.75
 74
     0
 49
-0.125
 74
     0
 49
0.125
 74
     0
 49
-0.125
 74
     0
  0
LTYPE
  5
45F
330
5
100
AcDbSymbolTableRecord
100
AcDbLinetypeTableRecord
  2
HIDDEN
 70
     0
  3
Hidden __ __ __ __ __ __ __ __ __ __ __ __ __ _
 72
    65
 73
     2
 40
0.375
 49
0.25
 74
     0
 49
-0.125
 74
     0
  0
ENDTAB
  0
TABLE
  2
LAYER
  5
2
330
0
100
AcDbSymbolTable
 70
     2
  0
LAYER
  5
10
330
2
100
AcDbSymbolTableRecord
100
AcDbLayerTableRecord
  2
0
 70
     0
 62
     7
  6
CONTINUOUS
  0
LAYER
  5
10CA
330
2
100
AcDbSymbolTableRecord
100
AcDbLayerTableRecord
  2
PEF-230A
 70
     0
 62
     7
  6
CONTINUOUS
  0
ENDTAB
  0
TABLE
  2
STYLE
  5
3
330
0
100
AcDbSymbolTable
 70
     1
  0
STYLE
  5
11
330
3
100
AcDbSymbolTableRecord
100
AcDbTextStyleTableRecord
  2
STANDARD
 70
     0
 40
0.0
 41
1.0
 50
0.0
 71
     0
 42
4.0
  3
txt.shx
  4
whgtxt.shx
  0
ENDTAB
  0
TABLE
  2
VIEW
  5
6
330
0
100
AcDbSymbolTable
 70
     0
  0
ENDTAB
  0
TABLE
  2
UCS
  5
7
330
0
100
AcDbSymbolTable
 70
     0
  0
ENDTAB
  0
TABLE
  2
APPID
  5
9
330
0
100
AcDbSymbolTable
 70
     3
  0
APPID
  5
12
330
9
100
AcDbSymbolTableRecord
100
AcDbRegAppTableRecord
  2
ACAD
 70
     0
  0
APPID
  5
D8A
330
9
100
AcDbSymbolTableRecord
100
AcDbRegAppTableRecord
  2
MCAD_NO_VIS
 70
     0
  0
APPID
  5
D8B
330
9
100
AcDbSymbolTableRecord
100
AcDbRegAppTableRecord
  2
ACAD_TEMP_GRAPHIC
 70
     0
  0
ENDTAB
  0
TABLE
  2
DIMSTYLE
  5
A
330
0
100
AcDbSymbolTable
 70
     1
  0
DIMSTYLE
105
27
330
A
100
AcDbSymbolTableRecord
100
AcDbDimStyleTableRecord
  2
STANDARD
 70
     0
  3

  4

  5

  6

  7

 40
1.5
 41
2.299999999999998
 42
0.5
 43
8.0
 44
1.0
 45
0.0
 46
0.0
 47
0.0
 48
0.000000001
140
2.299999999999998
141
0.09
142
0.0
143
25.4
144
1.0
145
0.0
146
0.7
147
0.5
 71
     0
 72
     0
 73
     0
 74
     0
 75
     0
 76
     0
 77
     1
 78
     8
170
     0
171
     1
172
     1
173
     0
174
     0
175
     0
176
     5
177
     5
178
     3
270
     2
271
     1
272
     1
273
     2
274
     1
340
11
275
     0
280
     0
281
     0
282
     0
283
     1
284
     0
285
     0
286
     0
287
     3
288
     1
  0
ENDTAB
  0
TABLE
  2
BLOCK_RECORD
  5
1
330
0
100
AcDbSymbolTable
 70
     0
  0
BLOCK_RECORD
  5
1F
102
{ACAD_XDICTIONARY
360
1095
102
}
330
1
100
AcDbSymbolTableRecord
100
AcDbBlockTableRecord
  2
*MODEL_SPACE
  0
BLOCK_RECORD
  5
1B
102
{ACAD_XDICTIONARY
360
1093
102
}
330
1
100
AcDbSymbolTableRecord
100
AcDbBlockTableRecord
  2
*PAPER_SPACE
  0
ENDTAB
  0
ENDSEC
  0
SECTION
  2
BLOCKS
  0
BLOCK
  5
20
330
1F
100
AcDbEntity
  8
0
100
AcDbBlockBegin
  2
*MODEL_SPACE
 70
     0
 10
0.0
 20
0.0
 30
0.0
  3
*MODEL_SPACE
  1

  0
ENDBLK
  5
21
330
1F
100
AcDbEntity
  8
0
100
AcDbBlockEnd
  0
BLOCK
  5
1C
330
1B
100
AcDbEntity
 67
     1
  8
0
100
AcDbBlockBegin
  2
*PAPER_SPACE
 70
     0
 10
0.0
 20
0.0
 30
0.0
  3
*PAPER_SPACE
  1

  0
ENDBLK
  5
1D
330
1B
100
AcDbEntity
 67
     1
  8
0
100
AcDbBlockEnd
  0
ENDSEC
  0
SECTION
  2
ENTITIES
  0
ARC
  5
965
330
1F
100
AcDbEntity
  8
PEF-230A
  6
CONTINUOUS
100
AcDbCircle
 10
209.2812678730708
 20
296.3958111059901
 30
0.0
 40
114.9999999999999
100
AcDbArc
 50
348.463040967185
 51
355.2614704879004
  0
ARC
  5
966
330
1F
100
AcDbEntity
  8
PEF-230A
  6
CONTINUOUS
100
AcDbCircle
 10
205.2016398864854
 20
296.3958111059898
 30
0.0
 40
130.0
100
AcDbArc
 50
244.190734850602
 51
355.8092651493952
  0
ARC
  5
967
330
1F
100
AcDbEntity
  8
PEF-230A
  6
CONTINUOUS
100
AcDbCircle
 10
205.2016398864855
 20
296.3958111059898
 30
0.0
 40
112.0
100
AcDbArc
 50
132.6678189377644
 51
227.3321810622355
  0
ARC
  5
968
330
1F
100
AcDbEntity
  8
PEF-230A
  6
CONTINUOUS
100
AcDbCircle
 10
205.2016398864855
 20
296.3958111059898
 30
0.0
 40
115.0
100
AcDbArc
 50
348.463040967185
 51
11.53695903281491
  0
LINE
  5
969
330
1F
100
AcDbEntity
  8
PEF-230A
  6
CENTER2
100
AcDbLine
 10
205.2016398864862
 20
151.3140912196123
 30
0.0
 11
205.201639886485
 21
444.7240320082975
 31
0.0
  0
ARC
  5
96A
330
1F
100
AcDbEntity
  8
PEF-230A
  6
CONTINUOUS
100
AcDbCircle
 10
205.2016398864854
 20
296.3958111059898
 30
0.0
 40
129.9999999999999
100
AcDbArc
 50
124.190734850606
 51
235.8092651493981
  0
LINE
  5
970
330
1F
100
AcDbEntity
  8
PEF-230A
  6
CONTINUOUS
100
AcDbLine
 10
130.2616639057049
 20
273.3958111059897
 30
0.0
 11
175.2016398864858
 21
273.3958111059898
 31
0.0
  0
ARC
  5
971
330
1F
100
AcDbEntity
  8
PEF-230A
  6
CONTINUOUS
100
AcDbCircle
 10
205.2016398864855
 20
296.3958111059898
 30
0.0
 40
84.99999999999992
100
AcDbArc
 50
200.4873151147233
 51
249.5126848852766
  0
ARC
  5
972
330
1F
100
AcDbEntity
  8
PEF-230A
  6
CONTINUOUS
100
AcDbCircle
 10
205.2016398864855
 20
296.3958111059898
 30
0.0
 40
111.9999999999997
100
AcDbArc
 50
252.6678189377637
 51
347.3321810622362
  0
ARC
  5
974
330
1F
100
AcDbEntity
  8
PEF-230A
  6
CONTINUOUS
100
AcDbCircle
 10
203.2016397056045
 20
292.9317095952839
 30
0.0
 40
114.9999999999999
100
AcDbArc
 50
235.2614704882125
 51
244.7385295124074
  0
LINE
  5
975
330
1F
100
AcDbEntity
  8
PEF-230A
  6
CONTINUOUS
100
AcDbLine
 10
138.2243987502735
 20
199.3878269202576
 30
0.0
 11
129.2243988430938
 21
183.7993698698695
 31
0.0
  0
LINE
  5
976
330
1F
100
AcDbEntity
  8
PEF-230A
  6
CONTINUOUS
100
AcDbLine
 10
154.6788797178549
 20
189.887827904249
 30
0.0
 11
138.2243970459507
 21
199.387827904249
 31
0.0
  0
LINE
  5
977
330
1F
100
AcDbEntity
  8
PEF-230A
  6
CENTER2
100
AcDbLine
 10
93.89045847705821
 20
202.6460259713185
 30
0.0
 11
110.8610212255354
 21
185.6754632228414
 31
0.0
  0
LINE
  5
978
330
1F
100
AcDbEntity
  8
PEF-230A
  6
CONTINUOUS
100
AcDbLine
 10
112.2170981604549
 20
198.4615219116524
 30
0.0
 11
98.07496253672425
 21
184.3193862879214
 31
0.0
  0
LINE
  5
979
330
1F
100
AcDbEntity
  8
PEF-230A
  6
CONTINUOUS
100
AcDbLine
 10
107.267350692149
 20
203.4112693799583
 30
0.0
 11
93.12521506841836
 21
189.2691337562271
 31
0.0
  0
LINE
  5
97A
330
1F
100
AcDbEntity
  8
PEF-230A
  6
HIDDEN
100
AcDbLine
 10
134.4909617678313
 20
211.5429973636037
 30
0.0
 11
120.6211980454549
 21
197.6732320099845
 31
0.0
  0
LINE
  5
97B
330
1F
100
AcDbEntity
  8
PEF-230A
  6
CONTINUOUS
100
AcDbLine
 10
106.4790624217237
 20
211.8153676337155
 30
0.0
 11
88.52902099070576
 21
193.8653278339398
 31
0.0
  0
ARC
  5
97C
330
1F
100
AcDbEntity
  8
PEF-230A
  6
CONTINUOUS
100
AcDbCircle
 10
109.7422244263019
 20
200.9363956458054
 30
0.0
 40
3.499999999999948
100
AcDbArc
 50
315.0
 51
135.0
  0
LINE
  5
97D
330
1F
100
AcDbEntity
  8
PEF-230A
  6
CENTER2
100
AcDbLine
 10
136.2397591684999
 20
227.4339303880037
 30
0.0
 11
82.73329583847862
 21
173.927467057982
 31
0.0
  0
ARC
  5
97E
330
1F
100
AcDbEntity
  8
PEF-230A
  6
CONTINUOUS
100
AcDbCircle
 10
205.2016398864855
 20
296.3958111059898
 30
0.0
 40
114.9999999999999
100
AcDbArc
 50
228.4630409671859
 51
251.536959032815
  0
LINE
  5
97F
330
1F
100
AcDbEntity
  8
PEF-230A
  6
CENTER2
100
AcDbLine
 10
133.8583283468707
 20
172.8255777183916
 30
0.0
 11
167.2735815104901
 21
230.7024869663266
 31
0.0
  0
LINE
  5
981
330
1F
100
AcDbEntity
  8
PEF-230A
  6
CONTINUOUS
100
AcDbLine
 10
120.6211980454549
 20
197.6732320099845
 30
0.0
 11
102.6711566144367
 21
179.7231922102088
 31
0.0
  0
ARC
  5
982
330
1F
100
AcDbEntity
  8
PEF-230A
  6
CONTINUOUS
100
AcDbCircle
 10
95.60008880257141
 20
186.7942600220743
 30
0.0
 40
10.0
100
AcDbArc
 50
135.0
 51
315.0
  0
ARC
  5
983
330
1F
100
AcDbEntity
  8
PEF-230A
  6
CONTINUOUS
100
AcDbCircle
 10
95.60008880257141
 20
186.7942600220743
 30
0.0
 40
3.500000000000006
100
AcDbArc
 50
135.0
 51
315.0
  0
LINE
  5
984
330
1F
100
AcDbEntity
  8
PEF-230A
  6
CONTINUOUS
100
AcDbLine
 10
137.4743983696528
 20
198.0887881600732
 30
0.0
 11
153.9288810415571
 21
188.5887881600733
 31
0.0
  0
LINE
  5
985
330
1F
100
AcDbEntity
  8
PEF-230A
  6
HIDDEN
100
AcDbLine
 10
145.8487540226348
 20
184.5935976316896
 30
0.0
 11
149.5987540226348
 21
191.088788160073
 31
0.0
  0
LINE
  5
986
330
1F
100
AcDbEntity
  8
PEF-230A
  6
HIDDEN
100
AcDbLine
 10
147.7638180055371
 20
182.9105858020373
 30
0.0
 11
135.6394623525549
 21
189.9105858020375
 31
0.0
  0
LINE
  5
987
330
1F
100
AcDbEntity
  8
PEF-230A
  6
HIDDEN
100
AcDbLine
 10
143.5138180055369
 20
175.5493698698695
 30
0.0
 11
147.7638180055371
 21
182.9105858020373
 31
0.0
  0
LINE
  5
988
330
1F
100
AcDbEntity
  8
PEF-230A
  6
CONTINUOUS
100
AcDbLine
 10
136.974398541915
 20
197.2227628980082
 30
0.0
 11
153.4288812138195
 21
187.722762898008
 31
0.0
  0
LINE
  5
989
330
1F
100
AcDbEntity
  8
PEF-230A
  6
CONTINUOUS
100
AcDbLine
 10
145.678881514998
 20
174.2993698698698
 30
0.0
 11
154.6788814221778
 21
189.8878269202576
 31
0.0
  0
ARC
  5
98A
330
1F
100
AcDbEntity
  8
PEF-230A
  6
CONTINUOUS
100
AcDbCircle
 10
148.4198939559655
 20
182.7963686378073
 30
0.0
 40
3.0
100
AcDbArc
 50
180.0
 51
243.4422021980656
  0
ARC
  5
98B
330
1F
100
AcDbEntity
  8
PEF-230A
  6
HIDDEN
100
AcDbCircle
 10
205.2016398864854
 20
296.3958111059898
 30
0.0
 40
130.0
100
AcDbArc
 50
235.8092651493981
 51
244.190734850602
  0
LINE
  5
98C
330
1F
100
AcDbEntity
  8
PEF-230A
  6
CONTINUOUS
100
AcDbLine
 10
129.2243988430938
 20
183.7993698698695
 30
0.0
 11
145.678881514998
 21
174.2993698698698
 31
0.0
  0
LINE
  5
98D
330
1F
100
AcDbEntity
  8
PEF-230A
  6
HIDDEN
100
AcDbLine
 10
135.6394623525549
 20
189.9105858020375
 30
0.0
 11
131.3894623525549
 21
182.5493698698696
 31
0.0
  0
LINE
  5
98E
330
1F
100
AcDbEntity
  8
PEF-230A
  6
HIDDEN
100
AcDbLine
 10
141.8045253885749
 20
195.588788160073
 30
0.0
 11
137.8045258620159
 21
188.6605858020375
 31
0.0
  0
ARC
  5
98F
330
1F
100
AcDbEntity
  8
PEF-230A
  6
CONTINUOUS
100
AcDbCircle
 10
203.2016397056045
 20
292.9317095952839
 30
0.0
 40
115.0
100
AcDbArc
 50
244.7385295124074
 51
251.536959032815
  0
LINE
  5
990
330
1F
100
AcDbEntity
  8
PEF-230A
  6
CONTINUOUS
100
AcDbLine
 10
169.5077255783383
 20
188.5721380032682
 30
0.0
 11
166.7421460962223
 21
183.7820138278734
 31
0.0
  0
ARC
  5
991
330
1F
100
AcDbEntity
  8
PEF-230A
  6
CONTINUOUS
100
AcDbCircle
 10
171.2397763859069
 20
187.5721380032682
 30
0.0
 40
1.99999999999998
100
AcDbArc
 50
72.66781893776357
 51
149.9999999999966
  0
ARC
  5
992
330
1F
100
AcDbEntity
  8
PEF-230A
  6
CONTINUOUS
100
AcDbCircle
 10
127.4198939559658
 20
218.6140651754695
 30
0.0
 40
10.00000000000007
100
AcDbArc
 50
143.9958912533159
 51
287.2309272707147
  0
LINE
  5
993
330
1F
100
AcDbEntity
  8
PEF-230A
  6
HIDDEN
100
AcDbLine
 10
120.3488261441002
 20
225.6851329873345
 30
0.0
 11
106.4790624217237
 21
211.8153676337155
 31
0.0
  0
ARC
  5
995
330
1F
100
AcDbEntity
  8
PEF-230A
  6
CENTER2
100
AcDbCircle
 10
205.2016398864854
 20
296.3958111059898
 30
0.0
 40
110.0
100
AcDbArc
 50
208.8114422447646
 51
232.0327833182803
  0
LINE
  5
996
330
1F
100
AcDbEntity
  8
PEF-230A
  6
CONTINUOUS
100
AcDbLine
 10
91.60219741830365
 20
236.6140651754693
 30
0.0
 11
110.4907951379334
 21
236.6140705152858
 31
0.0
  0
ARC
  5
997
330
1F
100
AcDbEntity
  8
PEF-230A
  6
CONTINUOUS
100
AcDbCircle
 10
91.60219741830365
 20
239.6140651754694
 30
0.0
 40
3.000000000000008
100
AcDbArc
 50
206.557797801924
 51
270.0
  0
ARC
  5
999
330
1F
100
AcDbEntity
  8
PEF-230A
  6
HIDDEN
100
AcDbCircle
 10
127.4198939559658
 20
218.6140651754695
 30
0.0
 40
2.34999999999999
100
AcDbArc
 50
256.9923377449625
 51
193.0076622550334
  0
ARC
  5
99A
330
1F
100
AcDbEntity
  8
PEF-230A
  6
HIDDEN
100
AcDbCircle
 10
127.4198939559658
 20
218.6140651754695
 30
0.0
 40
2.999999999999996
100
AcDbArc
 50
273.7694228451284
 51
176.2305771548714
  0
ARC
  5
99B
330
1F
100
AcDbEntity
  8
PEF-230A
  6
HIDDEN
100
AcDbCircle
 10
127.4198939559658
 20
218.6140651754695
 30
0.0
 40
4.899999999999981
100
AcDbArc
 50
292.0703182218991
 51
157.9296817781004
  0
ARC
  5
99C
330
1F
100
AcDbEntity
  8
PEF-230A
  6
CONTINUOUS
100
AcDbCircle
 10
127.4198939559658
 20
218.6140651754695
 30
0.0
 40
4.900000000000011
100
AcDbArc
 50
157.9296817781004
 51
292.0703182218991
  0
LINE
  5
99D
330
1F
100
AcDbEntity
  8
PEF-230A
  6
HIDDEN
100
AcDbLine
 10
131.5023749571462
 20
222.69654617665
 30
0.0
 11
132.9966667140455
 21
217.11977341857
 31
0.0
  0
LINE
  5
99E
330
1F
100
AcDbEntity
  8
PEF-230A
  6
CONTINUOUS
100
AcDbLine
 10
123.337412954785
 20
214.5315841742888
 30
0.0
 11
121.8431211978857
 21
220.1083569323688
 31
0.0
  0
ARC
  5
99F
330
1F
100
AcDbEntity
  8
PEF-230A
  6
HIDDEN
100
AcDbCircle
 10
127.4198939559658
 20
218.6140651754695
 30
0.0
 40
9.999999999999987
100
AcDbArc
 50
287.2309272707147
 51
143.9958912533159
  0
ARC
  5
9A0
330
1F
100
AcDbEntity
  8
PEF-230A
  6
CENTER2
100
AcDbCircle
 10
205.2016398864854
 20
296.3958111059898
 30
0.0
 40
110.0
100
AcDbArc
 50
217.9672166817195
 51
232.0327833182803
  0
ARC
  5
9A1
330
1F
100
AcDbEntity
  8
PEF-230A
  6
CONTINUOUS
100
AcDbCircle
 10
203.2016397056045
 20
292.9317095952839
 30
0.0
 40
114.9999999999999
100
AcDbArc
 50
228.4630409671859
 51
235.2614704882125
  0
LINE
  5
9A2
330
1F
100
AcDbEntity
  8
PEF-230A
  6
HIDDEN
100
AcDbLine
 10
132.9966667140455
 20
217.11977341857
 30
0.0
 11
129.6201692554417
 21
213.7432764266335
 31
0.0
  0
LINE
  5
9A3
330
1F
100
AcDbEntity
  8
PEF-230A
  6
CONTINUOUS
100
AcDbLine
 10
126.9049775221375
 20
206.7820138278737
 30
0.0
 11
129.670557004254
 21
211.5721380032677
 31
0.0
  0
ARC
  5
9A4
330
1F
100
AcDbEntity
  8
PEF-230A
  6
CONTINUOUS
100
AcDbCircle
 10
127.4198939559658
 20
218.6140651754695
 30
0.0
 40
3.000000000000048
100
AcDbArc
 50
176.2305771548714
 51
273.7694228451284
  0
LINE
  5
9A5
330
1F
100
AcDbEntity
  8
PEF-230A
  6
CONTINUOUS
100
AcDbLine
 10
128.914185712865
 20
213.0372924173896
 30
0.0
 11
123.337412954785
 21
214.5315841742888
 31
0.0
  0
ARC
  5
9A6
330
1F
100
AcDbEntity
  8
PEF-230A
  6
CONTINUOUS
100
AcDbCircle
 10
127.4198939559658
 20
218.6140651754695
 30
0.0
 40
2.3500000000001
100
AcDbArc
 50
193.0076622550334
 51
256.9923377449625
  0
LINE
  5
9A7
330
1F
100
AcDbEntity
  8
PEF-230A
  6
CONTINUOUS
100
AcDbLine
 10
129.6201692554417
 20
213.7432764266335
 30
0.0
 11
128.914185712865
 21
213.0372924173896
 31
0.0
  0
ARC
  5
9A8
330
1F
100
AcDbEntity
  8
PEF-230A
  6
CONTINUOUS
100
AcDbCircle
 10
127.938506196685
 20
212.5721380032679
 30
0.0
 40
2.000000000000015
100
AcDbArc
 50
329.9999999999993
 51
47.33218106223559
  0
LINE
  5
9A9
330
1F
100
AcDbEntity
  8
PEF-230A
  6
HIDDEN
100
AcDbLine
 10
125.9256021990664
 20
224.1908379335495
 30
0.0
 11
131.5023749571462
 21
222.69654617665
 31
0.0
  0
LINE
  5
9AA
330
1F
100
AcDbEntity
  8
PEF-230A
  6
HIDDEN
100
AcDbLine
 10
122.5491041409745
 20
220.8143415411004
 30
0.0
 11
125.9256021990664
 21
224.1908379335495
 31
0.0
  0
LINE
  5
9AB
330
1F
100
AcDbEntity
  8
PEF-230A
  6
CONTINUOUS
100
AcDbLine
 10
121.8431211978857
 20
220.1083569323688
 30
0.0
 11
122.5491041409745
 21
220.8143415411004
 31
0.0
  0
ARC
  5
9AC
330
1F
100
AcDbEntity
  8
PEF-230A
  6
CONTINUOUS
100
AcDbCircle
 10
130.2616639057048
 20
268.3958111059896
 30
0.0
 40
5.0
100
AcDbArc
 50
90.0
 51
200.4873151147245
  0
ARC
  5
9AE
330
1F
100
AcDbEntity
  8
PEF-230A
  6
HIDDEN
100
AcDbCircle
 10
282.9833858170061
 20
218.6140651754698
 30
0.0
 40
9.999999999999984
100
AcDbArc
 50
36.00410874668396
 51
233.9958912533159
  0
ARC
  5
9AF
330
1F
100
AcDbEntity
  8
PEF-230A
  6
CONTINUOUS
100
AcDbCircle
 10
282.9833858170061
 20
218.6140651754698
 30
0.0
 40
10.0
100
AcDbArc
 50
233.9958912533159
 51
36.00410874668396
  0
LINE
  5
9B0
330
1F
100
AcDbEntity
  8
PEF-230A
  6
HIDDEN
100
AcDbLine
 10
290.0544536288719
 20
225.6851329873354
 30
0.0
 11
303.9242189824912
 21
211.815369264959
 31
0.0
  0
LINE
  5
9B1
330
1F
100
AcDbEntity
  8
PEF-230A
  6
CONTINUOUS
100
AcDbLine
 10
289.7820833587601
 20
197.6732336412281
 30
0.0
 11
307.7321231585356
 21
179.7231922102099
 31
0.0
  0
LINE
  5
9B3
330
1F
100
AcDbEntity
  8
PEF-230A
  6
CENTER2
100
AcDbLine
 10
274.1635206044719
 20
227.4339303880041
 30
0.0
 11
327.6699839344936
 21
173.9274670579826
 31
0.0
  0
LINE
  5
9B4
330
1F
100
AcDbEntity
  8
PEF-230A
  6
HIDDEN
100
AcDbLine
 10
275.9123180051409
 20
211.5429973636044
 30
0.0
 11
289.7820833587601
 21
197.6732336412281
 31
0.0
  0
LINE
  5
9B5
330
1F
100
AcDbEntity
  8
PEF-230A
  6
CONTINUOUS
100
AcDbLine
 10
264.9833858170063
 20
182.7963686378078
 30
0.0
 11
264.9833861545304
 21
201.6849729873678
 31
0.0
  0
ARC
  5
9B6
330
1F
100
AcDbEntity
  8
PEF-230A
  6
CONTINUOUS
100
AcDbCircle
 10
261.9833858170063
 20
182.7963686378078
 30
0.0
 40
3.000000000000006
100
AcDbArc
 50
296.5577978019343
 51
0.0
  0
ARC
  5
9B8
330
1F
100
AcDbEntity
  8
PEF-230A
  6
CONTINUOUS
100
AcDbCircle
 10
235.2016398864858
 20
266.3958111059901
 30
0.0
 40
6.999999999999992
100
AcDbArc
 50
90.0
 51
180.0
  0
ARC
  5
9B9
330
1F
100
AcDbEntity
  8
PEF-230A
  6
CONTINUOUS
100
AcDbCircle
 10
233.2016398864861
 20
221.4558351252092
 30
0.0
 40
5.0
100
AcDbArc
 50
180.0
 51
290.4873151147233
  0
LINE
  5
9BA
330
1F
100
AcDbEntity
  8
PEF-230A
  6
CONTINUOUS
100
AcDbLine
 10
182.2016398864858
 20
266.3958111059898
 30
0.0
 11
182.201639886486
 21
221.455835125209
 31
0.0
  0
LINE
  5
9BB
330
1F
100
AcDbEntity
  8
PEF-230A
  6
CONTINUOUS
100
AcDbLine
 10
228.201639886486
 20
221.4558351252092
 30
0.0
 11
228.2016398864855
 21
266.3958111059899
 31
0.0
  0
ARC
  5
9BC
330
1F
100
AcDbEntity
  8
PEF-230A
  6
CONTINUOUS
100
AcDbCircle
 10
177.201639886486
 20
221.455835125209
 30
0.0
 40
5.0
100
AcDbArc
 50
249.5126848852766
 51
0.0
  0
ARC
  5
9BD
330
1F
100
AcDbEntity
  8
PEF-230A
  6
CONTINUOUS
100
AcDbCircle
 10
175.2016398864858
 20
266.3958111059898
 30
0.0
 40
7.0
100
AcDbArc
 50
0.0
 51
90.0
  0
ARC
  5
9BE
330
1F
100
AcDbEntity
  8
PEF-230A
  6
CONTINUOUS
100
AcDbCircle
 10
205.2016398864855
 20
296.3958111059898
 30
0.0
 40
85.00000000000003
100
AcDbArc
 50
290.4873151147233
 51
339.5126848852796
  0
ARC
  5
9C0
330
1F
100
AcDbEntity
  8
PEF-230A
  6
HIDDEN
100
AcDbCircle
 10
282.9833858170061
 20
218.6140651754698
 30
0.0
 40
2.349999999999985
100
AcDbArc
 50
346.9923377449624
 51
283.0076622550373
  0
ARC
  5
9C1
330
1F
100
AcDbEntity
  8
PEF-230A
  6
HIDDEN
100
AcDbCircle
 10
282.9833858170061
 20
218.6140651754698
 30
0.0
 40
2.999999999999976
100
AcDbArc
 50
3.76942284512845
 51
266.2305771548683
  0
ARC
  5
9C2
330
1F
100
AcDbEntity
  8
PEF-230A
  6
HIDDEN
100
AcDbCircle
 10
282.9833858170061
 20
218.6140651754698
 30
0.0
 40
4.899999999999978
100
AcDbArc
 50
22.0703182218993
 51
247.9296817780975
  0
ARC
  5
9C3
330
1F
100
AcDbEntity
  8
PEF-230A
  6
CONTINUOUS
100
AcDbCircle
 10
282.9833858170061
 20
218.6140651754698
 30
0.0
 40
4.9
100
AcDbArc
 50
247.9296817780975
 51
22.0703182218993
  0
LINE
  5
9C4
330
1F
100
AcDbEntity
  8
PEF-230A
  6
CONTINUOUS
100
AcDbLine
 10
288.560158575086
 20
220.1083569323693
 30
0.0
 11
287.0658668181868
 21
214.5315841742894
 31
0.0
  0
LINE
  5
9C5
330
1F
100
AcDbEntity
  8
PEF-230A
  6
HIDDEN
100
AcDbLine
 10
277.4066130589263
 20
217.1197734185704
 30
0.0
 11
278.9009048158255
 21
222.6965461766505
 31
0.0
  0
ARC
  5
9C7
330
1F
100
AcDbEntity
  8
PEF-230A
  6
CONTINUOUS
100
AcDbCircle
 10
282.9833858170061
 20
218.6140651754698
 30
0.0
 40
2.34999999999999
100
AcDbArc
 50
283.0076622550373
 51
346.9923377449624
  0
ARC
  5
9C8
330
1F
100
AcDbEntity
  8
PEF-230A
  6
CONTINUOUS
100
AcDbCircle
 10
282.9833858170061
 20
218.6140651754698
 30
0.0
 40
2.999999999999993
100
AcDbArc
 50
266.2305771548683
 51
3.76942284512845
  0
LINE
  5
9C9
330
1F
100
AcDbEntity
  8
PEF-230A
  6
CONTINUOUS
100
AcDbLine
 10
287.0658668181868
 20
214.5315841742894
 30
0.0
 11
281.4890940601068
 21
213.03729241739
 31
0.0
  0
LINE
  5
9CA
330
1F
100
AcDbEntity
  8
PEF-230A
  6
HIDDEN
100
AcDbLine
 10
280.783109451375
 20
213.7432753604787
 30
0.0
 11
277.4066130589263
 21
217.1197734185704
 31
0.0
  0
LINE
  5
9CB
330
1F
100
AcDbEntity
  8
PEF-230A
  6
CONTINUOUS
100
AcDbLine
 10
281.4890940601068
 20
213.03729241739
 30
0.0
 11
280.783109451375
 21
213.7432753604787
 31
0.0
  0
LINE
  5
9CC
330
1F
100
AcDbEntity
  8
PEF-230A
  6
HIDDEN
100
AcDbLine
 10
284.4776775739055
 20
224.1908379335498
 30
0.0
 11
287.8541745658423
 21
220.8143404749458
 31
0.0
  0
LINE
  5
9CD
330
1F
100
AcDbEntity
  8
PEF-230A
  6
HIDDEN
100
AcDbLine
 10
278.9009048158255
 20
222.6965461766505
 30
0.0
 11
284.4776775739055
 21
224.1908379335498
 31
0.0
  0
LINE
  5
9CE
330
1F
100
AcDbEntity
  8
PEF-230A
  6
CONTINUOUS
100
AcDbLine
 10
287.8541745658423
 20
220.8143404749458
 30
0.0
 11
288.560158575086
 21
220.1083569323693
 31
0.0
  0
LINE
  5
9D0
330
1F
100
AcDbEntity
  8
PEF-230A
  6
CONTINUOUS
100
AcDbLine
 10
235.2016398864858
 20
273.3958111059899
 30
0.0
 11
280.1416158672665
 21
273.3958111059901
 31
0.0
  0
ARC
  5
9D1
330
1F
100
AcDbEntity
  8
PEF-230A
  6
CONTINUOUS
100
AcDbCircle
 10
280.1416158672665
 20
268.39581110599
 30
0.0
 40
5.000000000000006
100
AcDbArc
 50
339.5126848852796
 51
90.0
  0
LINE
  5
9D3
330
1F
100
AcDbEntity
  8
PEF-230A
  6
CENTER2
100
AcDbLine
 10
298.9514250211572
 20
185.0846296965621
 30
0.0
 11
315.9219877696343
 21
202.0551924450395
 31
0.0
  0
LINE
  5
9D4
330
1F
100
AcDbEntity
  8
PEF-230A
  6
CONTINUOUS
100
AcDbLine
 10
303.1359290808231
 20
203.4112693799591
 30
0.0
 11
317.2780647045541
 21
189.2691337562281
 31
0.0
  0
LINE
  5
9D5
330
1F
100
AcDbEntity
  8
PEF-230A
  6
CONTINUOUS
100
AcDbLine
 10
298.1861816125173
 20
198.4615219116533
 30
0.0
 11
312.3283172362484
 21
184.3193862879224
 31
0.0
  0
LINE
  5
9D6
330
1F
100
AcDbEntity
  8
PEF-230A
  6
CONTINUOUS
100
AcDbLine
 10
303.9242189824912
 20
211.815369264959
 30
0.0
 11
321.8742587822666
 21
193.8653278339408
 31
0.0
  0
ARC
  5
9D7
330
1F
100
AcDbEntity
  8
PEF-230A
  6
CONTINUOUS
100
AcDbCircle
 10
314.8031909704013
 20
186.7942600220754
 30
0.0
 40
10.0
100
AcDbArc
 50
225.0
 51
45.0
  0
ARC
  5
9D8
330
1F
100
AcDbEntity
  8
PEF-230A
  6
CONTINUOUS
100
AcDbCircle
 10
314.8031909704013
 20
186.7942600220754
 30
0.0
 40
3.500000000000023
100
AcDbArc
 50
225.0
 51
45.0
  0
ARC
  5
9D9
330
1F
100
AcDbEntity
  8
PEF-230A
  6
CONTINUOUS
100
AcDbCircle
 10
318.8010823546682
 20
239.6140651754699
 30
0.0
 40
3.0
100
AcDbArc
 50
270.0
 51
333.4422021980758
  0
ARC
  5
9DA
330
1F
100
AcDbEntity
  8
PEF-230A
  6
CONTINUOUS
100
AcDbCircle
 10
300.6610553466702
 20
200.9363956458062
 30
0.0
 40
3.499999999999998
100
AcDbArc
 50
45.0
 51
225.0
  0
LINE
  5
9DB
330
1F
100
AcDbEntity
  8
PEF-230A
  6
CONTINUOUS
100
AcDbLine
 10
299.9124755902538
 20
236.6140624230911
 30
0.0
 11
318.8010823546682
 21
236.6140651754699
 31
0.0
  0
LINE
  5
9DC
330
1F
100
AcDbEntity
  8
PEF-230A
  6
CONTINUOUS
100
AcDbLine
 10
321.9577960410972
 20
273.3958111059901
 30
0.0
 11
316.4266370768657
 21
273.3958111059901
 31
0.0
  0
ARC
  5
9DD
330
1F
100
AcDbEntity
  8
PEF-230A
  6
CONTINUOUS
100
AcDbCircle
 10
316.4266370768655
 20
271.3958111059901
 30
0.0
 40
2.0
100
AcDbArc
 50
90.0
 51
167.332181062236
  0
ARC
  5
9DF
330
1F
100
AcDbEntity
  8
PEF-230A
  6
CONTINUOUS
100
AcDbCircle
 10
205.2016398864854
 20
296.3958111059898
 30
0.0
 40
130.0
100
AcDbArc
 50
4.190734850604683
 51
115.8092651493979
  0
LINE
  5
9E0
330
1F
100
AcDbEntity
  8
PEF-230A
  6
CONTINUOUS
100
AcDbLine
 10
175.2016398864856
 20
319.3958111059898
 30
0.0
 11
130.2616639057048
 21
319.3958111059897
 31
0.0
  0
ARC
  5
9E1
330
1F
100
AcDbEntity
  8
PEF-230A
  6
CONTINUOUS
100
AcDbCircle
 10
205.2016398864855
 20
296.3958111059898
 30
0.0
 40
84.99999999999998
100
AcDbArc
 50
110.4873151147245
 51
159.5126848852766
  0
ARC
  5
9E2
330
1F
100
AcDbEntity
  8
PEF-230A
  6
CONTINUOUS
100
AcDbCircle
 10
205.2016398864855
 20
296.3958111059898
 30
0.0
 40
112.0
100
AcDbArc
 50
12.66781893776378
 51
107.3321810622361
  0
LINE
  5
9E3
330
1F
100
AcDbEntity
  8
PEF-230A
  6
CENTER2
100
AcDbLine
 10
63.26257695149474
 20
296.3958111059893
 30
0.0
 11
347.888251169402
 21
296.3958111059905
 31
0.0
  0
ARC
  5
9E6
330
1F
100
AcDbEntity
  8
PEF-230A
  6
HIDDEN
100
AcDbCircle
 10
127.4198939559652
 20
374.1775570365097
 30
0.0
 40
2.349999999999989
100
AcDbArc
 50
166.9923377449624
 51
103.0076622550372
  0
ARC
  5
9E7
330
1F
100
AcDbEntity
  8
PEF-230A
  6
HIDDEN
100
AcDbCircle
 10
127.4198939559652
 20
374.1775570365097
 30
0.0
 40
3.000000000000021
100
AcDbArc
 50
183.7694228451283
 51
86.23057715487155
  0
ARC
  5
9E8
330
1F
100
AcDbEntity
  8
PEF-230A
  6
HIDDEN
100
AcDbCircle
 10
127.4198939559652
 20
374.1775570365097
 30
0.0
 40
4.9
100
AcDbArc
 50
202.0703182219023
 51
67.92968177809761
  0
ARC
  5
9E9
330
1F
100
AcDbEntity
  8
PEF-230A
  6
CONTINUOUS
100
AcDbCircle
 10
127.4198939559652
 20
374.1775570365097
 30
0.0
 40
4.9
100
AcDbArc
 50
67.92968177809761
 51
202.0703182219023
  0
LINE
  5
9EA
330
1F
100
AcDbEntity
  8
PEF-230A
  6
CONTINUOUS
100
AcDbLine
 10
121.8431211978853
 20
372.6832652796102
 30
0.0
 11
123.3374129547847
 21
378.2600380376901
 31
0.0
  0
LINE
  5
9EB
330
1F
100
AcDbEntity
  8
PEF-230A
  6
HIDDEN
100
AcDbLine
 10
132.996666714045
 20
375.6718487934093
 30
0.0
 11
131.502374957146
 21
370.0950760353292
 31
0.0
  0
ARC
  5
9EC
330
1F
100
AcDbEntity
  8
PEF-230A
  6
HIDDEN
100
AcDbCircle
 10
127.4198939559652
 20
374.1775570365097
 30
0.0
 40
9.999999999999984
100
AcDbArc
 50
216.0041087466839
 51
72.76907272928513
  0
ARC
  5
9ED
330
1F
100
AcDbEntity
  8
PEF-230A
  6
CONTINUOUS
100
AcDbCircle
 10
127.4198939559652
 20
374.1775570365097
 30
0.0
 40
9.999999999999984
100
AcDbArc
 50
72.76907272928513
 51
216.0041087466839
  0
LINE
  5
9EE
330
1F
100
AcDbEntity
  8
PEF-230A
  6
HIDDEN
100
AcDbLine
 10
120.3488261440997
 20
367.106489224644
 30
0.0
 11
106.4790607904801
 21
380.9762529470206
 31
0.0
  0
LINE
  5
9EF
330
1F
100
AcDbEntity
  8
PEF-230A
  6
CENTER2
100
AcDbLine
 10
136.2397591684995
 20
365.3576918239755
 30
0.0
 11
82.73329583847766
 21
418.8641551539971
 31
0.0
  0
LINE
  5
9F0
330
1F
100
AcDbEntity
  8
PEF-230A
  6
CENTER2
100
AcDbLine
 10
133.8583283468692
 20
419.966034871712
 30
0.0
 11
164.8374791051875
 21
366.3085883840768
 31
0.0
  0
CIRCLE
  5
9F3
330
1F
100
AcDbEntity
  8
PEF-230A
  6
CONTINUOUS
100
AcDbCircle
 10
85.20163988648574
 20
296.3958111059895
 30
0.0
 40
2.0
  0
CIRCLE
  5
9F4
330
1F
100
AcDbEntity
  8
PEF-230A
  6
CONTINUOUS
100
AcDbCircle
 10
85.20163988648574
 20
296.3958111059895
 30
0.0
 40
1.650000000000034
  0
LINE
  5
9F5
330
1F
100
AcDbEntity
  8
PEF-230A
  6
CENTER2
100
AcDbLine
 10
85.20163988648574
 20
289.6672937014628
 30
0.0
 11
85.2016398864859
 21
303.6292525242988
 31
0.0
  0
LINE
  5
9F6
330
1F
100
AcDbEntity
  8
PEF-230A
  6
CONTINUOUS
100
AcDbLine
 10
110.4907937892344
 20
356.1775653526638
 30
0.0
 11
91.60219741830307
 21
356.1775570365097
 31
0.0
  0
ARC
  5
9F7
330
1F
100
AcDbEntity
  8
PEF-230A
  6
CONTINUOUS
100
AcDbCircle
 10
91.60219741830326
 20
353.1775570365097
 30
0.0
 40
3.0
100
AcDbArc
 50
90.0
 51
153.4422021980758
  0
ARC
  5
9F8
330
1F
100
AcDbEntity
  8
PEF-230A
  6
CONTINUOUS
100
AcDbCircle
 10
130.2616639057052
 20
324.3958111059896
 30
0.0
 40
5.000000000000143
100
AcDbArc
 50
159.5126848852796
 51
270.0
  0
LINE
  5
9F9
330
1F
100
AcDbEntity
  8
PEF-230A
  6
HIDDEN
100
AcDbLine
 10
131.502374957146
 20
370.0950760353292
 30
0.0
 11
125.9256021990661
 21
368.6007842784299
 31
0.0
  0
LINE
  5
9FA
330
1F
100
AcDbEntity
  8
PEF-230A
  6
HIDDEN
100
AcDbLine
 10
125.9256021990661
 20
368.6007842784299
 30
0.0
 11
122.5491052071292
 21
371.977281737034
 31
0.0
  0
LINE
  5
9FB
330
1F
100
AcDbEntity
  8
PEF-230A
  6
CONTINUOUS
100
AcDbLine
 10
122.5491052071292
 20
371.977281737034
 30
0.0
 11
121.8431211978853
 21
372.6832652796102
 31
0.0
  0
LINE
  5
9FD
330
1F
100
AcDbEntity
  8
PEF-230A
  6
CONTINUOUS
100
AcDbLine
 10
120.6211964142112
 20
395.1183885707516
 30
0.0
 11
102.6711566144355
 21
413.0684300017698
 31
0.0
  0
ARC
  5
9FE
330
1F
100
AcDbEntity
  8
PEF-230A
  6
CONTINUOUS
100
AcDbCircle
 10
95.6000888025701
 20
405.997362189904
 30
0.0
 40
10.0
100
AcDbArc
 50
45.0
 51
225.0
  0
LINE
  5
9FF
330
1F
100
AcDbEntity
  8
PEF-230A
  6
CENTER2
100
AcDbLine
 10
111.451854751814
 20
407.7069925154173
 30
0.0
 11
94.48129200333729
 21
390.7364297669403
 31
0.0
  0
LINE
  5
A00
330
1F
100
AcDbEntity
  8
PEF-230A
  6
CONTINUOUS
100
AcDbLine
 10
107.2673506921482
 20
389.3803528320205
 30
0.0
 11
93.12521506841727
 21
403.5224884557512
 31
0.0
  0
LINE
  5
A01
330
1F
100
AcDbEntity
  8
PEF-230A
  6
CONTINUOUS
100
AcDbLine
 10
112.2170981604541
 20
394.3301003003263
 30
0.0
 11
98.0749625367231
 21
408.4722359240571
 31
0.0
  0
LINE
  5
A02
330
1F
100
AcDbEntity
  8
PEF-230A
  6
CONTINUOUS
100
AcDbLine
 10
106.4790607904801
 20
380.9762529470206
 30
0.0
 11
88.52902099070455
 21
398.9262943780388
 31
0.0
  0
ARC
  5
A03
330
1F
100
AcDbEntity
  8
PEF-230A
  6
CONTINUOUS
100
AcDbCircle
 10
109.7422244263012
 20
391.8552265661734
 30
0.0
 40
3.499999999999968
100
AcDbArc
 50
225.0
 51
45.0
  0
ARC
  5
A04
330
1F
100
AcDbEntity
  8
PEF-230A
  6
CONTINUOUS
100
AcDbCircle
 10
95.6000888025701
 20
405.997362189904
 30
0.0
 40
3.500000000000026
100
AcDbArc
 50
45.0
 51
225.0
  0
LINE
  5
A05
330
1F
100
AcDbEntity
  8
PEF-230A
  6
CONTINUOUS
100
AcDbLine
 10
145.6788785121053
 20
418.4922476247287
 30
0.0
 11
129.2243958402012
 21
408.9922476247286
 31
0.0
  0
LINE
  5
A06
330
1F
100
AcDbEntity
  8
PEF-230A
  6
CONTINUOUS
100
AcDbLine
 10
154.6788780389847
 20
402.9037913222267
 30
0.0
 11
145.6788785121053
 21
418.4922476247287
 31
0.0
  0
ARC
  5
A07
330
1F
100
AcDbEntity
  8
PEF-230A
  6
CONTINUOUS
100
AcDbCircle
 10
203.2016394223998
 20
299.8599124531876
 30
0.0
 40
114.9999999999999
100
AcDbArc
 50
115.2614727824863
 51
124.7385318066825
  0
LINE
  5
A08
330
1F
100
AcDbEntity
  8
PEF-230A
  6
CONTINUOUS
100
AcDbLine
 10
138.2244049020559
 20
393.4037968272474
 30
0.0
 11
154.67888757396
 21
402.9037968272474
 31
0.0
  0
ARC
  5
A09
330
1F
100
AcDbEntity
  8
PEF-230A
  6
HIDDEN
100
AcDbCircle
 10
205.2016398864854
 20
296.3958111059898
 30
0.0
 40
129.9999999999999
100
AcDbArc
 50
115.8092651493979
 51
124.190734850606
  0
LINE
  5
A0A
330
1F
100
AcDbEntity
  8
PEF-230A
  6
HIDDEN
100
AcDbLine
 10
149.5987497631799
 20
401.7028315927088
 30
0.0
 11
145.5987514931834
 21
408.6310316925612
 31
0.0
  0
LINE
  5
A0B
330
1F
100
AcDbEntity
  8
PEF-230A
  6
HIDDEN
100
AcDbLine
 10
147.7638150026446
 20
409.8810316925612
 30
0.0
 11
143.5138150026443
 21
417.2422476247287
 31
0.0
  0
LINE
  5
A0C
330
1F
100
AcDbEntity
  8
PEF-230A
  6
HIDDEN
100
AcDbLine
 10
135.6394593496625
 20
402.8810316925611
 30
0.0
 11
147.7638150026446
 21
409.8810316925612
 31
0.0
  0
LINE
  5
A0D
330
1F
100
AcDbEntity
  8
PEF-230A
  6
CONTINUOUS
100
AcDbLine
 10
136.9743941101976
 20
395.5688569964933
 30
0.0
 11
153.4288767821021
 21
405.0688569964935
 31
0.0
  0
LINE
  5
A0E
330
1F
100
AcDbEntity
  8
PEF-230A
  6
CONTINUOUS
100
AcDbLine
 10
137.4743941101979
 20
394.7028315927088
 30
0.0
 11
153.928876782102
 21
404.2028315927089
 31
0.0
  0
ARC
  5
A0F
330
1F
100
AcDbEntity
  8
PEF-230A
  6
CONTINUOUS
100
AcDbCircle
 10
205.2016398864855
 20
296.3958111059898
 30
0.0
 40
114.9999999999999
100
AcDbArc
 50
108.4630409671849
 51
131.5369590328139
  0
ARC
  5
A10
330
1F
100
AcDbEntity
  8
PEF-230A
  6
CONTINUOUS
100
AcDbCircle
 10
148.4198939559651
 20
409.9952535741719
 30
0.0
 40
3.0
100
AcDbArc
 50
116.5577978019344
 51
180.0
  0
LINE
  5
A11
330
1F
100
AcDbEntity
  8
PEF-230A
  6
CONTINUOUS
100
AcDbLine
 10
129.2243958402012
 20
408.9922476247286
 30
0.0
 11
138.2243953670802
 21
393.4037913222267
 31
0.0
  0
ARC
  5
A13
330
1F
100
AcDbEntity
  8
PEF-230A
  6
CONTINUOUS
100
AcDbCircle
 10
203.2016394223998
 20
299.8599124531876
 30
0.0
 40
114.9999999999999
100
AcDbArc
 50
124.7385318066825
 51
131.5369590328139
  0
LINE
  5
A14
330
1F
100
AcDbEntity
  8
PEF-230A
  6
HIDDEN
100
AcDbLine
 10
129.6201703215963
 20
379.0483468515008
 30
0.0
 11
132.996666714045
 21
375.6718487934093
 31
0.0
  0
LINE
  5
A15
330
1F
100
AcDbEntity
  8
PEF-230A
  6
HIDDEN
100
AcDbLine
 10
134.4909617678305
 20
381.2486248483754
 30
0.0
 11
120.6211964142112
 21
395.1183885707516
 31
0.0
  0
LINE
  5
A16
330
1F
100
AcDbEntity
  8
PEF-230A
  6
CONTINUOUS
100
AcDbLine
 10
126.9049775221375
 20
386.009608384106
 30
0.0
 11
129.6705570042536
 21
381.2194842087113
 31
0.0
  0
ARC
  5
A17
330
1F
100
AcDbEntity
  8
PEF-230A
  6
CONTINUOUS
100
AcDbCircle
 10
127.4198939559652
 20
374.1775570365097
 30
0.0
 40
2.999999999999991
100
AcDbArc
 50
86.23057715487155
 51
183.7694228451283
  0
LINE
  5
A18
330
1F
100
AcDbEntity
  8
PEF-230A
  6
CONTINUOUS
100
AcDbLine
 10
123.3374129547847
 20
378.2600380376901
 30
0.0
 11
128.9141857128647
 21
379.7543297945898
 31
0.0
  0
ARC
  5
A19
330
1F
100
AcDbEntity
  8
PEF-230A
  6
CONTINUOUS
100
AcDbCircle
 10
127.4198939559652
 20
374.1775570365097
 30
0.0
 40
2.349999999999984
100
AcDbArc
 50
103.0076622550372
 51
166.9923377449624
  0
LINE
  5
A1A
330
1F
100
AcDbEntity
  8
PEF-230A
  6
CONTINUOUS
100
AcDbLine
 10
128.9141857128647
 20
379.7543297945898
 30
0.0
 11
129.6201703215963
 21
379.0483468515008
 31
0.0
  0
ARC
  5
A1B
330
1F
100
AcDbEntity
  8
PEF-230A
  6
CONTINUOUS
100
AcDbCircle
 10
127.9385061966845
 20
380.2194842087113
 30
0.0
 40
1.999999999999928
100
AcDbArc
 50
312.6678189377618
 51
30.00000000000057
  0
LINE
  5
A1C
330
1F
100
AcDbEntity
  8
PEF-230A
  6
HIDDEN
100
AcDbLine
 10
131.3894593496623
 20
410.2422476247286
 30
0.0
 11
135.6394593496625
 21
402.8810316925611
 31
0.0
  0
LINE
  5
A1D
330
1F
100
AcDbEntity
  8
PEF-230A
  6
HIDDEN
100
AcDbLine
 10
137.8045228591237
 20
404.1310316925613
 30
0.0
 11
141.8045211291198
 21
397.2028315927088
 31
0.0
  0
ARC
  5
A1E
330
1F
100
AcDbEntity
  8
PEF-230A
  6
CONTINUOUS
100
AcDbCircle
 10
203.2016394223998
 20
299.8599124531876
 30
0.0
 40
114.9999999999999
100
AcDbArc
 50
108.4630409671849
 51
115.2614727824863
  0
LINE
  5
A1F
330
1F
100
AcDbEntity
  8
PEF-230A
  6
CONTINUOUS
100
AcDbLine
 10
166.7421460962215
 20
409.0096083841061
 30
0.0
 11
169.5077255783377
 21
404.2194842087114
 31
0.0
  0
ARC
  5
A20
330
1F
100
AcDbEntity
  8
PEF-230A
  6
CONTINUOUS
100
AcDbCircle
 10
171.2397763859065
 20
405.2194842087116
 30
0.0
 40
2.000000000000039
100
AcDbArc
 50
210.0000000000004
 51
287.3321810622332
  0
ARC
  5
A26
330
1F
100
AcDbEntity
  8
PEF-230A
  6
HIDDEN
100
AcDbCircle
 10
282.9833858170056
 20
374.1775570365104
 30
0.0
 40
10.00000000000003
100
AcDbArc
 50
126.0041087466839
 51
323.995891253316
  0
ARC
  5
A27
330
1F
100
AcDbEntity
  8
PEF-230A
  6
CONTINUOUS
100
AcDbCircle
 10
282.9833858170056
 20
374.1775570365104
 30
0.0
 40
9.999999999999996
100
AcDbArc
 50
323.995891253316
 51
126.0041087466839
  0
LINE
  5
A28
330
1F
100
AcDbEntity
  8
PEF-230A
  6
CONTINUOUS
100
AcDbLine
 10
289.7820817275166
 20
395.1183902019954
 30
0.0
 11
307.7321231585345
 21
413.0684300017708
 31
0.0
  0
LINE
  5
A29
330
1F
100
AcDbEntity
  8
PEF-230A
  6
HIDDEN
100
AcDbLine
 10
290.0544536288712
 20
367.1064892246451
 30
0.0
 11
303.9242173512476
 21
380.9762545782644
 31
0.0
  0
ARC
  5
A2A
330
1F
100
AcDbEntity
  8
PEF-230A
  6
CENTER2
100
AcDbCircle
 10
205.2016398864855
 20
296.3958111059898
 30
0.0
 40
110.0
100
AcDbArc
 50
37.9672166817196
 51
52.03278331828039
  0
LINE
  5
A2B
330
1F
100
AcDbEntity
  8
PEF-230A
  6
CENTER2
100
AcDbLine
 10
274.1635206044713
 20
365.3576918239759
 30
0.0
 11
327.6699839344928
 21
418.8641551539981
 31
0.0
  0
ARC
  5
A2C
330
1F
100
AcDbEntity
  8
PEF-230A
  6
CENTER2
100
AcDbCircle
 10
205.2016398864854
 20
296.3958111059898
 30
0.0
 40
110.0
100
AcDbArc
 50
28.91429959975997
 51
52.03278331828039
  0
ARC
  5
A2E
330
1F
100
AcDbEntity
  8
PEF-230A
  6
HIDDEN
100
AcDbCircle
 10
282.9833858170056
 20
374.1775570365104
 30
0.0
 40
2.350000000000004
100
AcDbArc
 50
76.99233774496261
 51
13.0076622550374
  0
ARC
  5
A2F
330
1F
100
AcDbEntity
  8
PEF-230A
  6
HIDDEN
100
AcDbCircle
 10
282.9833858170056
 20
374.1775570365104
 30
0.0
 40
2.999999999999991
100
AcDbArc
 50
93.76942284512844
 51
356.2305771548715
  0
ARC
  5
A30
330
1F
100
AcDbEntity
  8
PEF-230A
  6
HIDDEN
100
AcDbCircle
 10
282.9833858170056
 20
374.1775570365104
 30
0.0
 40
4.899999999999966
100
AcDbArc
 50
112.0703182219022
 51
337.9296817781006
  0
ARC
  5
A31
330
1F
100
AcDbEntity
  8
PEF-230A
  6
CONTINUOUS
100
AcDbCircle
 10
282.9833858170056
 20
374.1775570365104
 30
0.0
 40
4.900000000000003
100
AcDbArc
 50
337.9296817781006
 51
112.0703182219022
  0
LINE
  5
A32
330
1F
100
AcDbEntity
  8
PEF-230A
  6
HIDDEN
100
AcDbLine
 10
278.9009048158252
 20
370.0950760353296
 30
0.0
 11
277.4066130589257
 21
375.6718487934098
 31
0.0
  0
LINE
  5
A33
330
1F
100
AcDbEntity
  8
PEF-230A
  6
CONTINUOUS
100
AcDbLine
 10
287.0658668181862
 20
378.2600380376909
 30
0.0
 11
288.5601585750856
 21
372.6832652796109
 31
0.0
  0
ARC
  5
A34
330
1F
100
AcDbEntity
  8
PEF-230A
  6
CONTINUOUS
100
AcDbCircle
 10
177.2016398864854
 20
371.3357870867706
 30
0.0
 40
5.0
100
AcDbArc
 50
0.0
 51
110.4873151147232
  0
ARC
  5
A35
330
1F
100
AcDbEntity
  8
PEF-230A
  6
CONTINUOUS
100
AcDbCircle
 10
233.2016398864853
 20
371.3357870867707
 30
0.0
 40
5.000000000000006
100
AcDbArc
 50
69.51268488527668
 51
180.0
  0
ARC
  5
A36
330
1F
100
AcDbEntity
  8
PEF-230A
  6
CONTINUOUS
100
AcDbCircle
 10
205.2016398864855
 20
296.3958111059898
 30
0.0
 40
85.00000000000003
100
AcDbArc
 50
20.4873151147233
 51
69.51268488527668
  0
ARC
  5
A38
330
1F
100
AcDbEntity
  8
PEF-230A
  6
CONTINUOUS
100
AcDbCircle
 10
235.2016398864857
 20
326.39581110599
 30
0.0
 40
7.0
100
AcDbArc
 50
180.0
 51
270.0
  0
LINE
  5
A39
330
1F
100
AcDbEntity
  8
PEF-230A
  6
CONTINUOUS
100
AcDbLine
 10
182.2016398864853
 20
371.3357870867706
 30
0.0
 11
182.2016398864855
 21
326.3958111059898
 31
0.0
  0
LINE
  5
A3A
330
1F
100
AcDbEntity
  8
PEF-230A
  6
CONTINUOUS
100
AcDbLine
 10
228.2016398864855
 20
326.3958111059898
 30
0.0
 11
228.2016398864854
 21
371.3357870867707
 31
0.0
  0
CIRCLE
  5
A3B
330
1F
100
AcDbEntity
  8
PEF-230A
  6
CONTINUOUS
100
AcDbCircle
 10
205.2016398864855
 20
296.3958111059898
 30
0.0
 40
6.0
  0
CIRCLE
  5
A3C
330
1F
100
AcDbEntity
  8
PEF-230A
  6
CONTINUOUS
100
AcDbCircle
 10
205.2016398864855
 20
296.3958111059898
 30
0.0
 40
5.099999999999994
  0
ARC
  5
A3D
330
1F
100
AcDbEntity
  8
PEF-230A
  6
CONTINUOUS
100
AcDbCircle
 10
175.2016398864856
 20
326.3958111059896
 30
0.0
 40
6.999999999999992
100
AcDbArc
 50
270.0
 51
0.0
  0
LINE
  5
A3E
330
1F
100
AcDbEntity
  8
PEF-230A
  6
CONTINUOUS
100
AcDbLine
 10
280.1416158672665
 20
319.3958111059901
 30
0.0
 11
235.2016398864858
 21
319.3958111059898
 31
0.0
  0
ARC
  5
A3F
330
1F
100
AcDbEntity
  8
PEF-230A
  6
CONTINUOUS
100
AcDbCircle
 10
280.1416158672665
 20
324.3958111059901
 30
0.0
 40
5.0
100
AcDbArc
 50
270.0
 51
20.4873151147233
  0
LINE
  5
A40
330
1F
100
AcDbEntity
  8
PEF-230A
  6
HIDDEN
100
AcDbLine
 10
287.854175631997
 20
371.9772806708792
 30
0.0
 11
284.4776775739051
 21
368.6007842784304
 31
0.0
  0
LINE
  5
A41
330
1F
100
AcDbEntity
  8
PEF-230A
  6
HIDDEN
100
AcDbLine
 10
284.4776775739051
 20
368.6007842784304
 30
0.0
 11
278.9009048158252
 21
370.0950760353296
 31
0.0
  0
LINE
  5
A42
330
1F
100
AcDbEntity
  8
PEF-230A
  6
CONTINUOUS
100
AcDbLine
 10
288.5601585750856
 20
372.6832652796109
 30
0.0
 11
287.854175631997
 21
371.9772806708792
 31
0.0
  0
LINE
  5
A46
330
1F
100
AcDbEntity
  8
PEF-230A
  6
CONTINUOUS
100
AcDbLine
 10
264.9833848058313
 20
391.1066601831839
 30
0.0
 11
264.9833858170058
 21
409.9952535741725
 31
0.0
  0
LINE
  5
A47
330
1F
100
AcDbEntity
  8
PEF-230A
  6
HIDDEN
100
AcDbLine
 10
275.9123180051401
 20
381.2486248483761
 30
0.0
 11
289.7820817275166
 21
395.1183902019954
 31
0.0
  0
ARC
  5
A49
330
1F
100
AcDbEntity
  8
PEF-230A
  6
CONTINUOUS
100
AcDbCircle
 10
282.9833858170056
 20
374.1775570365104
 30
0.0
 40
2.350000000000003
100
AcDbArc
 50
13.0076622550374
 51
76.99233774496261
  0
ARC
  5
A4A
330
1F
100
AcDbEntity
  8
PEF-230A
  6
CONTINUOUS
100
AcDbCircle
 10
282.9833858170056
 20
374.1775570365104
 30
0.0
 40
3.000000000000003
100
AcDbArc
 50
356.2305771548715
 51
93.76942284512844
  0
LINE
  5
A4B
330
1F
100
AcDbEntity
  8
PEF-230A
  6
CONTINUOUS
100
AcDbLine
 10
281.4890940601063
 20
379.7543297945903
 30
0.0
 11
287.0658668181862
 21
378.2600380376909
 31
0.0
  0
LINE
  5
A4C
330
1F
100
AcDbEntity
  8
PEF-230A
  6
HIDDEN
100
AcDbLine
 10
277.4066130589257
 20
375.6718487934098
 30
0.0
 11
280.7831105175296
 21
379.0483457853464
 31
0.0
  0
LINE
  5
A4D
330
1F
100
AcDbEntity
  8
PEF-230A
  6
CONTINUOUS
100
AcDbLine
 10
280.7831105175296
 20
379.0483457853464
 30
0.0
 11
281.4890940601063
 21
379.7543297945903
 31
0.0
  0
ARC
  5
A4E
330
1F
100
AcDbEntity
  8
PEF-230A
  6
CONTINUOUS
100
AcDbCircle
 10
261.9833858170057
 20
409.9952535741723
 30
0.0
 40
3.0
100
AcDbArc
 50
0.0
 51
63.44220219806557
  0
LINE
  5
A54
330
1F
100
AcDbEntity
  8
PEF-230A
  6
CONTINUOUS
100
AcDbLine
 10
321.9577960410969
 20
319.3958111059905
 30
0.0
 11
316.4266370768655
 21
319.3958111059901
 31
0.0
  0
ARC
  5
A55
330
1F
100
AcDbEntity
  8
PEF-230A
  6
CONTINUOUS
100
AcDbCircle
 10
316.4266370768655
 20
321.3958111059901
 30
0.0
 40
1.999999999999995
100
AcDbArc
 50
192.6678189377636
 51
270.0
  0
ARC
  5
A56
330
1F
100
AcDbEntity
  8
PEF-230A
  6
CONTINUOUS
100
AcDbCircle
 10
209.2812678730708
 20
296.3958111059901
 30
0.0
 40
114.9999999999999
100
AcDbArc
 50
4.738529512099495
 51
11.53695903281491
  0
LINE
  5
A57
330
1F
100
AcDbEntity
  8
PEF-230A
  6
HIDDEN
100
AcDbLine
 10
332.2812678730708
 20
289.3958111059905
 30
0.0
 11
340.7812678730708
 21
289.3958111059905
 31
0.0
  0
LINE
  5
A58
330
1F
100
AcDbEntity
  8
PEF-230A
  6
HIDDEN
100
AcDbLine
 10
340.781267873071
 20
303.3958111059904
 30
0.0
 11
332.2812678730708
 21
303.3958111059904
 31
0.0
  0
LINE
  5
A59
330
1F
100
AcDbEntity
  8
PEF-230A
  6
CONTINUOUS
100
AcDbLine
 10
322.7812678730708
 20
286.8958111059902
 30
0.0
 11
340.7812678730711
 21
286.8958111059905
 31
0.0
  0
LINE
  5
A5A
330
1F
100
AcDbEntity
  8
PEF-230A
  6
CONTINUOUS
100
AcDbLine
 10
340.7812678730708
 20
305.8958111059904
 30
0.0
 11
322.7812678730708
 21
305.8958111059904
 31
0.0
  0
ARC
  5
A5B
330
1F
100
AcDbEntity
  8
PEF-230A
  6
CONTINUOUS
100
AcDbCircle
 10
209.2812678730708
 20
296.3958111059901
 30
0.0
 40
114.9999999999999
100
AcDbArc
 50
355.2614704879004
 51
4.738529512099495
  0
LINE
  5
A5C
330
1F
100
AcDbEntity
  8
PEF-230A
  6
CONTINUOUS
100
AcDbLine
 10
322.7812678730708
 20
305.8958111059904
 30
0.0
 11
322.7812678730708
 21
286.8958111059902
 31
0.0
  0
LINE
  5
A5D
330
1F
100
AcDbEntity
  8
PEF-230A
  6
CONTINUOUS
100
AcDbLine
 10
325.2812678730709
 20
305.8958111059904
 30
0.0
 11
325.2812678730711
 21
286.8958111059902
 31
0.0
  0
ARC
  5
A5E
330
1F
100
AcDbEntity
  8
PEF-230A
  6
HIDDEN
100
AcDbCircle
 10
205.2016398864854
 20
296.3958111059898
 30
0.0
 40
130.0
100
AcDbArc
 50
355.8092651493952
 51
4.190734850604683
  0
LINE
  5
A5F
330
1F
100
AcDbEntity
  8
PEF-230A
  6
HIDDEN
100
AcDbLine
 10
332.2812678730708
 20
303.3958111059904
 30
0.0
 11
332.2812678730708
 21
289.3958111059905
 31
0.0
  0
LINE
  5
A60
330
1F
100
AcDbEntity
  8
PEF-230A
  6
CONTINUOUS
100
AcDbLine
 10
324.2812678730708
 20
305.8958111059904
 30
0.0
 11
324.281267873071
 21
286.8958111059902
 31
0.0
  0
LINE
  5
A61
330
1F
100
AcDbEntity
  8
PEF-230A
  6
HIDDEN
100
AcDbLine
 10
324.2812678730708
 20
291.8958111059902
 30
0.0
 11
332.2812678730708
 21
291.8958111059905
 31
0.0
  0
LINE
  5
A62
330
1F
100
AcDbEntity
  8
PEF-230A
  6
HIDDEN
100
AcDbLine
 10
332.2812678730708
 20
300.8958111059905
 30
0.0
 11
324.281267873071
 21
300.8958111059905
 31
0.0
  0
LINE
  5
A63
330
1F
100
AcDbEntity
  8
PEF-230A
  6
CONTINUOUS
100
AcDbLine
 10
340.7812678730711
 20
286.8958111059905
 30
0.0
 11
340.7812678730708
 21
305.8958111059904
 31
0.0
  0
ARC
  5
A64
330
1F
100
AcDbEntity
  8
PEF-230A
  6
CONTINUOUS
100
AcDbCircle
 10
318.8010823546678
 20
353.1775570365106
 30
0.0
 40
3.0
100
AcDbArc
 50
26.55779780192419
 51
90.0
  0
LINE
  5
A65
330
1F
100
AcDbEntity
  8
PEF-230A
  6
CONTINUOUS
100
AcDbLine
 10
318.8010823546678
 20
356.1775570365107
 30
0.0
 11
299.9124809850505
 21
356.1775640039646
 31
0.0
  0
ARC
  5
A6A
330
1F
100
AcDbEntity
  8
PEF-230A
  6
CONTINUOUS
100
AcDbCircle
 10
314.8031909704001
 20
405.9973621899054
 30
0.0
 40
9.999999999999976
100
AcDbArc
 50
315.0
 51
135.0
  0
LINE
  5
A6B
330
1F
100
AcDbEntity
  8
PEF-230A
  6
CONTINUOUS
100
AcDbLine
 10
303.9242173512476
 20
380.9762545782644
 30
0.0
 11
321.8742587822656
 21
398.92629437804
 31
0.0
  0
LINE
  5
A6C
330
1F
100
AcDbEntity
  8
PEF-230A
  6
CENTER2
100
AcDbLine
 10
316.5128212959134
 20
390.1455962406614
 30
0.0
 11
299.5422585474361
 21
407.1161589891386
 31
0.0
  0
LINE
  5
A6D
330
1F
100
AcDbEntity
  8
PEF-230A
  6
CONTINUOUS
100
AcDbLine
 10
298.1861816125163
 20
394.3301003003274
 30
0.0
 11
312.3283172362472
 21
408.4722359240584
 31
0.0
  0
LINE
  5
A6E
330
1F
100
AcDbEntity
  8
PEF-230A
  6
CONTINUOUS
100
AcDbLine
 10
303.1359290808221
 20
389.3803528320214
 30
0.0
 11
317.2780647045531
 21
403.5224884557526
 31
0.0
  0
ARC
  5
A6F
330
1F
100
AcDbEntity
  8
PEF-230A
  6
CONTINUOUS
100
AcDbCircle
 10
300.6610553466694
 20
391.8552265661744
 30
0.0
 40
3.500000000000017
100
AcDbArc
 50
135.0
 51
315.0
  0
ARC
  5
A70
330
1F
100
AcDbEntity
  8
PEF-230A
  6
CONTINUOUS
100
AcDbCircle
 10
314.8031909704001
 20
405.9973621899054
 30
0.0
 40
3.500000000000003
100
AcDbArc
 50
315.0
 51
135.0
  0
LINE
  5
A83
330
1F
100
AcDbEntity
  8
PEF-230A
  6
CONTINUOUS
100
AcDbLine
 10
472.3560728633238
 20
274.1326532112539
 30
0.0
 11
472.3560728633238
 21
286.8958111059911
 31
0.0
  0
LINE
  5
A84
330
1F
100
AcDbEntity
  8
PEF-230A
  6
CONTINUOUS
100
AcDbLine
 10
671.468300028262
 20
288.7916306864537
 30
0.0
 11
679.2326414835111
 21
272.1409467024735
 31
0.0
  0
LINE
  5
A85
330
1F
100
AcDbEntity
  8
PEF-230A
  6
CONTINUOUS
100
AcDbLine
 10
666.9367610930792
 20
286.6785393777502
 30
0.0
 11
674.701102548328
 21
270.0278553937699
 31
0.0
  0
LINE
  5
A86
330
1F
100
AcDbEntity
  8
PEF-230A
  6
CENTER2
100
AcDbLine
 10
474.8560728633242
 20
166.3958111059907
 30
0.0
 11
474.8560728633223
 21
435.3958111059908
 31
0.0
  0
LINE
  5
A87
330
1F
100
AcDbEntity
  8
PEF-230A
  6
CONTINUOUS
100
AcDbLine
 10
621.607913755121
 20
168.3958111059918
 30
0.0
 11
621.6079137551202
 21
424.3958111059901
 31
0.0
  0
LINE
  5
A91
330
1F
100
AcDbEntity
  8
PEF-230A
  6
CONTINUOUS
100
AcDbLine
 10
655.6079137551209
 20
168.3958111059915
 30
0.0
 11
655.6079137551208
 21
424.3958111059911
 31
0.0
  0
LINE
  5
A96
330
1F
100
AcDbEntity
  8
PEF-230A
  6
HIDDEN
100
AcDbLine
 10
485.8560728633234
 20
277.3542293348899
 30
0.0
 11
485.8560728633231
 21
315.4373928770914
 31
0.0
  0
LINE
  5
A97
330
1F
100
AcDbEntity
  8
PEF-230A
  6
CONTINUOUS
100
AcDbLine
 10
484.3560728633241
 20
188.1963345980479
 30
0.0
 11
484.3560728633225
 21
414.3958111059906
 31
0.0
  0
LINE
  5
A98
330
1F
100
AcDbEntity
  8
PEF-230A
  6
CONTINUOUS
100
AcDbLine
 10
465.3560728633228
 20
410.3958111059906
 30
0.0
 11
465.3560728633236
 21
186.6173872296269
 31
0.0
  0
LINE
  5
A9B
330
1F
100
AcDbEntity
  8
PEF-230A
  6
CONTINUOUS
100
AcDbLine
 10
643.6079137551212
 20
221.7825611059913
 30
0.0
 11
639.1122289801212
 21
221.7825611059911
 31
0.0
  0
LINE
  5
A9C
330
1F
100
AcDbEntity
  8
PEF-230A
  6
CONTINUOUS
100
AcDbLine
 10
643.6079137551212
 20
216.009061105991
 30
0.0
 11
639.1122289801212
 21
216.009061105991
 31
0.0
  0
LINE
  5
A9D
330
1F
100
AcDbEntity
  8
PEF-230A
  6
CONTINUOUS
100
AcDbLine
 10
643.6079137551212
 20
224.6693111059913
 30
0.0
 11
639.1122289801212
 21
224.6693111059911
 31
0.0
  0
LINE
  5
A9E
330
1F
100
AcDbEntity
  8
PEF-230A
  6
CONTINUOUS
100
AcDbLine
 10
643.6079137551212
 20
213.1223111059913
 30
0.0
 11
639.1122289801212
 21
213.122311105991
 31
0.0
  0
LINE
  5
A9F
330
1F
100
AcDbEntity
  8
PEF-230A
  6
CENTER2
100
AcDbLine
 10
633.8399877808126
 20
218.8958111059911
 30
0.0
 11
673.7324541958737
 21
218.8958111059911
 31
0.0
  0
LINE
  5
AA0
330
1F
100
AcDbEntity
  8
PEF-230A
  6
CONTINUOUS
100
AcDbLine
 10
623.4745681564739
 20
181.0816297756525
 30
0.0
 11
642.8079321530922
 21
182.3735138534843
 31
0.0
  0
LINE
  5
AA1
330
1F
100
AcDbEntity
  8
PEF-230A
  6
CONTINUOUS
100
AcDbLine
 10
621.6079137551209
 20
236.0968237961605
 30
0.0
 11
642.9166112083777
 21
233.8924757837545
 31
0.0
  0
LINE
  5
AA2
330
1F
100
AcDbEntity
  8
PEF-230A
  6
CONTINUOUS
100
AcDbLine
 10
623.6079137551212
 20
166.3958111059914
 30
0.0
 11
653.6079137551212
 21
166.3958111059914
 31
0.0
  0
LINE
  5
AB5
330
1F
100
AcDbEntity
  8
PEF-230A
  6
CONTINUOUS
100
AcDbLine
 10
621.607913755121
 20
186.3958111059899
 30
0.0
 11
491.607913755121
 21
186.3958111059909
 31
0.0
  0
LINE
  5
AB6
330
1F
100
AcDbEntity
  8
PEF-230A
  6
CONTINUOUS
100
AcDbLine
 10
491.607913755121
 20
185.1958111059908
 30
0.0
 11
621.607913755121
 21
185.1958111059918
 31
0.0
  0
LINE
  5
AB7
330
1F
100
AcDbEntity
  8
PEF-230A
  6
CENTER2
100
AcDbLine
 10
611.4770712972163
 20
218.8958111059911
 30
0.0
 11
473.996375668397
 21
218.8958111059908
 31
0.0
  0
LINE
  5
ABB
330
1F
100
AcDbEntity
  8
PEF-230A
  6
CONTINUOUS
100
AcDbLine
 10
490.9051233883181
 20
243.8958111059909
 30
0.0
 11
490.9051233883184
 21
193.8958111059908
 31
0.0
  0
LINE
  5
ABE
330
1F
100
AcDbEntity
  8
PEF-230A
  6
CONTINUOUS
100
AcDbLine
 10
490.1560728633232
 20
252.7932470034266
 30
0.0
 11
490.1560728633238
 21
191.3958111059909
 31
0.0
  0
LINE
  5
ABF
330
1F
100
AcDbEntity
  8
PEF-230A
  6
CONTINUOUS
100
AcDbLine
 10
485.8560728633237
 20
191.3958111059909
 30
0.0
 11
485.8560728633234
 21
275.3958111059908
 31
0.0
  0
LINE
  5
AC1
330
1F
100
AcDbEntity
  8
PEF-230A
  6
CENTER2
100
AcDbLine
 10
472.3560728633238
 20
181.3958111059905
 30
0.0
 11
466.3560728633235
 21
181.3958111059905
 31
0.0
  0
ARC
  5
AC2
330
1F
100
AcDbEntity
  8
PEF-230A
  6
CONTINUOUS
100
AcDbCircle
 10
467.3560728633238
 20
186.6173872296269
 30
0.0
 40
2.0
100
AcDbArc
 50
180.0
 51
276.009005957494
  0
LINE
  5
AC4
330
1F
100
AcDbEntity
  8
PEF-230A
  6
CENTER2
100
AcDbLine
 10
465.3560728633236
 20
182.3958111059905
 30
0.0
 11
466.3560728633235
 21
181.3958111059905
 31
0.0
  0
LINE
  5
AC5
330
1F
100
AcDbEntity
  8
PEF-230A
  6
CENTER2
100
AcDbLine
 10
465.3560728633236
 20
186.6173872296269
 30
0.0
 11
465.3560728633236
 21
182.3958111059905
 31
0.0
  0
LINE
  5
AC6
330
1F
100
AcDbEntity
  8
PEF-230A
  6
CONTINUOUS
100
AcDbLine
 10
484.3560728633239
 20
191.3958111059908
 30
0.0
 11
491.6079137551203
 21
191.3958111059908
 31
0.0
  0
LINE
  5
AC7
330
1F
100
AcDbEntity
  8
PEF-230A
  6
CENTER2
100
AcDbLine
 10
483.3560728633236
 20
177.3958111059904
 30
0.0
 11
473.3560728633238
 21
177.3958111059905
 31
0.0
  0
LINE
  5
AC8
330
1F
100
AcDbEntity
  8
PEF-230A
  6
CONTINUOUS
100
AcDbLine
 10
467.5654424323599
 20
184.6283763237839
 30
0.0
 11
482.5654424323598
 21
186.2073236922052
 31
0.0
  0
LINE
  5
AC9
330
1F
100
AcDbEntity
  8
PEF-230A
  6
CENTER2
100
AcDbLine
 10
472.3560728633241
 20
181.3958111059904
 30
0.0
 11
472.3560728633239
 21
178.3958111059905
 31
0.0
  0
LINE
  5
ACA
330
1F
100
AcDbEntity
  8
PEF-230A
  6
CENTER2
100
AcDbLine
 10
472.3560728633239
 20
178.3958111059905
 30
0.0
 11
473.3560728633238
 21
177.3958111059905
 31
0.0
  0
LINE
  5
ACB
330
1F
100
AcDbEntity
  8
PEF-230A
  6
CONTINUOUS
100
AcDbLine
 10
491.607913755121
 20
191.3958111059909
 30
0.0
 11
491.607913755121
 21
185.1958111059908
 31
0.0
  0
LINE
  5
ACC
330
1F
100
AcDbEntity
  8
PEF-230A
  6
CENTER2
100
AcDbLine
 10
484.3560728633238
 20
188.1963345980479
 30
0.0
 11
484.3560728633239
 21
178.3958111059908
 31
0.0
  0
ARC
  5
ACD
330
1F
100
AcDbEntity
  8
PEF-230A
  6
CONTINUOUS
100
AcDbCircle
 10
482.3560728633236
 20
188.1963345980479
 30
0.0
 40
2.000000000000003
100
AcDbArc
 50
276.009005957494
 51
0.0
  0
LINE
  5
ACE
330
1F
100
AcDbEntity
  8
PEF-230A
  6
CENTER2
100
AcDbLine
 10
484.3560728633239
 20
178.3958111059908
 30
0.0
 11
483.3560728633236
 21
177.3958111059904
 31
0.0
  0
ARC
  5
AD1
330
1F
100
AcDbEntity
  8
PEF-230A
  6
CONTINUOUS
100
AcDbCircle
 10
467.3560728633233
 20
275.6173872296265
 30
0.0
 40
2.0
100
AcDbArc
 50
180.0
 51
276.009005957494
  0
ARC
  5
AD2
330
1F
100
AcDbEntity
  8
PEF-230A
  6
HIDDEN
100
AcDbCircle
 10
467.3560728633236
 20
214.2512175716444
 30
0.0
 40
1.999999999999995
100
AcDbArc
 50
84.42780219603719
 51
180.0
  0
LINE
  5
ADA
330
1F
100
AcDbEntity
  8
PEF-230A
  6
HIDDEN
100
AcDbLine
 10
467.5502727918945
 20
216.2417668394957
 30
0.0
 11
484.0502727918943
 21
214.6320107419348
 31
0.0
  0
ARC
  5
ADB
330
1F
100
AcDbEntity
  8
PEF-230A
  6
HIDDEN
100
AcDbCircle
 10
483.8560728633236
 20
212.6414614740836
 30
0.0
 40
2.0
100
AcDbArc
 50
0.0
 51
84.4278021960376
  0
LINE
  5
B13
330
1F
100
AcDbEntity
  8
PEF-230A
  6
CONTINUOUS
100
AcDbLine
 10
491.6079137551203
 20
243.8958111059909
 30
0.0
 11
490.9051233883181
 21
243.8958111059909
 31
0.0
  0
LINE
  5
B14
330
1F
100
AcDbEntity
  8
PEF-230A
  6
CONTINUOUS
100
AcDbLine
 10
491.6079137551204
 20
252.420980108094
 30
0.0
 11
485.8560728633234
 21
253.8958111059905
 31
0.0
  0
LINE
  5
B15
330
1F
100
AcDbEntity
  8
PEF-230A
  6
CONTINUOUS
100
AcDbLine
 10
491.6079137551204
 20
276.8706421038874
 30
0.0
 11
485.8560728633234
 21
275.3958111059908
 31
0.0
  0
LINE
  5
B16
330
1F
100
AcDbEntity
  8
PEF-230A
  6
CONTINUOUS
100
AcDbLine
 10
491.6079137551206
 20
276.8706421038874
 30
0.0
 11
491.6079137551206
 21
252.420980108094
 31
0.0
  0
LINE
  5
B17
330
1F
100
AcDbEntity
  8
PEF-230A
  6
CONTINUOUS
100
AcDbLine
 10
484.0654424323594
 20
275.3652184290472
 30
0.0
 11
467.5654424323594
 21
273.6283763237839
 31
0.0
  0
ARC
  5
B18
330
1F
100
AcDbEntity
  8
PEF-230A
  6
HIDDEN
100
AcDbCircle
 10
483.8560728633233
 20
277.3542293348899
 30
0.0
 40
2.0
100
AcDbArc
 50
276.009005957494
 51
0.0
  0
LINE
  5
B25
330
1F
100
AcDbEntity
  8
PEF-230A
  6
CONTINUOUS
100
AcDbLine
 10
621.607913755121
 20
186.3958111059913
 30
0.0
 11
598.6079137551212
 21
186.3958111059909
 31
0.0
  0
LINE
  5
B27
330
1F
100
AcDbEntity
  8
PEF-230A
  6
CONTINUOUS
100
AcDbLine
 10
623.6079137551212
 20
166.3958111059914
 30
0.0
 11
621.6079137551215
 21
168.3958111059915
 31
0.0
  0
ARC
  5
B28
330
1F
100
AcDbEntity
  8
PEF-230A
  6
CONTINUOUS
100
AcDbCircle
 10
623.6079137551212
 20
179.0860799889218
 30
0.0
 40
1.999999999999998
100
AcDbArc
 50
93.82290588815658
 51
180.0
  0
LINE
  5
B4A
330
1F
100
AcDbEntity
  8
PEF-230A
  6
CENTER2
100
AcDbLine
 10
590.2642684403643
 20
218.895811105991
 30
0.0
 11
624.6593151565805
 21
218.8958111059911
 31
0.0
  0
ARC
  5
B4D
330
1F
100
AcDbEntity
  8
PEF-230A
  6
CONTINUOUS
100
AcDbCircle
 10
647.1220920311832
 20
218.8958111059911
 30
0.0
 40
8.514178276062047
100
AcDbArc
 50
160.1808667565913
 51
199.8191332434085
  0
LINE
  5
B4E
330
1F
100
AcDbEntity
  8
PEF-230A
  6
CONTINUOUS
100
AcDbLine
 10
638.6079137551212
 20
223.795811105991
 30
0.0
 11
638.6079137551212
 21
213.9958111059911
 31
0.0
  0
LINE
  5
B4F
330
1F
100
AcDbEntity
  8
PEF-230A
  6
CONTINUOUS
100
AcDbLine
 10
637.9079137551213
 20
221.8958111059913
 30
0.0
 11
637.9079137551213
 21
215.8958111059912
 31
0.0
  0
ARC
  5
B53
330
1F
100
AcDbEntity
  8
PEF-230A
  6
CONTINUOUS
100
AcDbCircle
 10
641.6122291314027
 20
214.5656861059911
 30
0.0
 40
2.88675117492672
100
AcDbArc
 50
150.0000130688799
 51
209.9999869311198
  0
LINE
  5
B54
330
1F
100
AcDbEntity
  8
PEF-230A
  6
CONTINUOUS
100
AcDbLine
 10
639.1122289801212
 20
213.122311105991
 30
0.0
 11
638.6079137551212
 21
213.9958111059911
 31
0.0
  0
LINE
  5
B55
330
1F
100
AcDbEntity
  8
PEF-230A
  6
CONTINUOUS
100
AcDbLine
 10
637.9079137551213
 20
216.5458111059911
 30
0.0
 11
638.6079137551212
 21
216.5458111059913
 31
0.0
  0
LINE
  5
B56
330
1F
100
AcDbEntity
  8
PEF-230A
  6
CONTINUOUS
100
AcDbLine
 10
637.9079137551213
 20
215.8958111059912
 30
0.0
 11
638.6079137551212
 21
215.8958111059912
 31
0.0
  0
ARC
  5
B59
330
1F
100
AcDbEntity
  8
PEF-230A
  6
CONTINUOUS
100
AcDbCircle
 10
641.6122291314027
 20
223.2259361059913
 30
0.0
 40
2.886751174926761
100
AcDbArc
 50
150.0000130688825
 51
209.9999869311169
  0
LINE
  5
B5A
330
1F
100
AcDbEntity
  8
PEF-230A
  6
CONTINUOUS
100
AcDbLine
 10
639.1122289801212
 20
224.6693111059911
 30
0.0
 11
638.6079137551212
 21
223.795811105991
 31
0.0
  0
LINE
  5
B5B
330
1F
100
AcDbEntity
  8
PEF-230A
  6
CONTINUOUS
100
AcDbLine
 10
637.9079137551213
 20
221.2458111059913
 30
0.0
 11
638.6079137551212
 21
221.2458111059913
 31
0.0
  0
LINE
  5
B5C
330
1F
100
AcDbEntity
  8
PEF-230A
  6
CONTINUOUS
100
AcDbLine
 10
637.9079137551213
 20
221.8958111059913
 30
0.0
 11
638.6079137551212
 21
221.8958111059913
 31
0.0
  0
LINE
  5
B7C
330
1F
100
AcDbEntity
  8
PEF-230A
  6
CONTINUOUS
100
AcDbLine
 10
670.6079137551212
 20
176.794260022077
 30
0.0
 11
670.6079137551212
 21
228.8958111059913
 31
0.0
  0
LINE
  5
B7D
330
1F
100
AcDbEntity
  8
PEF-230A
  6
CONTINUOUS
100
AcDbLine
 10
668.3079137551214
 20
228.8958111059911
 30
0.0
 11
668.3079137551215
 21
176.794260022077
 31
0.0
  0
LINE
  5
B7E
330
1F
100
AcDbEntity
  8
PEF-230A
  6
CONTINUOUS
100
AcDbLine
 10
645.6079137551212
 20
185.3668385335805
 30
0.0
 11
645.6079137551212
 21
230.908400402275
 31
0.0
  0
LINE
  5
B80
330
1F
100
AcDbEntity
  8
PEF-230A
  6
CENTER2
100
AcDbLine
 10
665.7324541958735
 20
193.8653278339424
 30
0.0
 11
673.7324541958736
 21
193.8653278339424
 31
0.0
  0
LINE
  5
B81
330
1F
100
AcDbEntity
  8
PEF-230A
  6
CONTINUOUS
100
AcDbLine
 10
653.6079137551212
 20
166.3958111059914
 30
0.0
 11
655.6079137551212
 21
168.3958111059915
 31
0.0
  0
ARC
  5
B82
330
1F
100
AcDbEntity
  8
PEF-230A
  6
CONTINUOUS
100
AcDbCircle
 10
642.6079137551212
 20
185.3668385335805
 30
0.0
 40
2.999999999999971
100
AcDbArc
 50
273.8229058881598
 51
0.0
  0
LINE
  5
B83
330
1F
100
AcDbEntity
  8
PEF-230A
  6
HIDDEN
100
AcDbLine
 10
668.3079137551215
 20
183.294260022077
 30
0.0
 11
670.6079137551212
 21
183.294260022077
 31
0.0
  0
LINE
  5
B84
330
1F
100
AcDbEntity
  8
PEF-230A
  6
CONTINUOUS
100
AcDbLine
 10
668.3079137551215
 20
176.794260022077
 30
0.0
 11
670.6079137551212
 21
176.794260022077
 31
0.0
  0
LINE
  5
B88
330
1F
100
AcDbEntity
  8
PEF-230A
  6
CONTINUOUS
100
AcDbLine
 10
706.0357603951778
 20
234.888424007155
 30
0.0
 11
699.1485237732326
 21
242.8140767697565
 31
0.0
  0
LINE
  5
B89
330
1F
100
AcDbEntity
  8
PEF-230A
  6
CONTINUOUS
100
AcDbLine
 10
694.6195793374601
 20
238.8785129857879
 30
0.0
 11
701.5068159594052
 21
230.9528602231861
 31
0.0
  0
LINE
  5
B8A
330
1F
100
AcDbEntity
  8
PEF-230A
  6
CONTINUOUS
100
AcDbLine
 10
686.3404169303337
 20
236.23373913044
 30
0.0
 11
683.9817783988252
 21
251.1179051956294
 31
0.0
  0
LINE
  5
B8B
330
1F
100
AcDbEntity
  8
PEF-230A
  6
CONTINUOUS
100
AcDbLine
 10
688.3157610502897
 20
236.5468135748688
 30
0.0
 11
685.8673893525309
 21
251.9971800236433
 31
0.0
  0
LINE
  5
B8C
330
1F
100
AcDbEntity
  8
PEF-230A
  6
CONTINUOUS
100
AcDbLine
 10
696.12927372354
 20
240.1903143714963
 30
0.0
 11
685.8673893525309
 21
251.9971800236433
 31
0.0
  0
LINE
  5
B8D
330
1F
100
AcDbEntity
  8
PEF-230A
  6
CONTINUOUS
100
AcDbLine
 10
697.6388293871525
 20
241.5022753840482
 30
0.0
 11
687.7530003062367
 21
252.8764548516571
 31
0.0
  0
LINE
  5
B8E
330
1F
100
AcDbEntity
  8
PEF-230A
  6
CONTINUOUS
100
AcDbLine
 10
699.1485237732326
 20
242.8140767697565
 30
0.0
 11
694.6195793374601
 21
238.8785129857879
 31
0.0
  0
LINE
  5
B8F
330
1F
100
AcDbEntity
  8
PEF-230A
  6
CONTINUOUS
100
AcDbLine
 10
645.6079137551212
 20
228.8958111059914
 30
0.0
 11
645.6079137551212
 21
208.895811105991
 31
0.0
  0
LINE
  5
B90
330
1F
100
AcDbEntity
  8
PEF-230A
  6
CONTINUOUS
100
AcDbLine
 10
643.6079137551212
 20
208.895811105991
 30
0.0
 11
643.6079137551212
 21
228.8958111059911
 31
0.0
  0
LINE
  5
B91
330
1F
100
AcDbEntity
  8
PEF-230A
  6
CONTINUOUS
100
AcDbLine
 10
657.9079137551214
 20
208.895811105991
 30
0.0
 11
657.9079137551216
 21
228.8958111059913
 31
0.0
  0
LINE
  5
B92
330
1F
100
AcDbEntity
  8
PEF-230A
  6
CONTINUOUS
100
AcDbLine
 10
655.6079137551215
 20
228.8958111059911
 30
0.0
 11
655.6079137551212
 21
208.8958111059913
 31
0.0
  0
LINE
  5
B93
330
1F
100
AcDbEntity
  8
PEF-230A
  6
CONTINUOUS
100
AcDbLine
 10
655.6079137551212
 20
208.8958111059913
 30
0.0
 11
657.9079137551214
 21
208.895811105991
 31
0.0
  0
LINE
  5
B94
330
1F
100
AcDbEntity
  8
PEF-230A
  6
CONTINUOUS
100
AcDbLine
 10
645.6079137551212
 20
208.895811105991
 30
0.0
 11
643.6079137551212
 21
208.895811105991
 31
0.0
  0
ARC
  5
B95
330
1F
100
AcDbEntity
  8
PEF-230A
  6
HIDDEN
100
AcDbCircle
 10
654.6079137551211
 20
208.3958111059934
 30
0.0
 40
2.0
100
AcDbArc
 50
180.0
 51
270.0
  0
LINE
  5
B96
330
1F
100
AcDbEntity
  8
PEF-230A
  6
HIDDEN
100
AcDbLine
 10
655.6079137551209
 20
206.3958111059913
 30
0.0
 11
654.6079137551211
 21
206.3958111059934
 31
0.0
  0
LINE
  5
B97
330
1F
100
AcDbEntity
  8
PEF-230A
  6
HIDDEN
100
AcDbLine
 10
645.6079137551212
 20
215.3958111059913
 30
0.0
 11
655.6079137551212
 21
215.3958111059913
 31
0.0
  0
LINE
  5
B98
330
1F
100
AcDbEntity
  8
PEF-230A
  6
HIDDEN
100
AcDbLine
 10
668.3079137551214
 20
204.4363956458078
 30
0.0
 11
670.6079137551212
 21
204.4363956458078
 31
0.0
  0
LINE
  5
B99
330
1F
100
AcDbEntity
  8
PEF-230A
  6
CONTINUOUS
100
AcDbLine
 10
659.4079137551212
 20
211.3958111059913
 30
0.0
 11
666.8079137551212
 21
211.3958111059913
 31
0.0
  0
ARC
  5
B9A
330
1F
100
AcDbEntity
  8
PEF-230A
  6
CONTINUOUS
100
AcDbCircle
 10
659.4079137551212
 20
209.8958111059913
 30
0.0
 40
1.5
100
AcDbArc
 50
90.0
 51
180.0
  0
ARC
  5
B9B
330
1F
100
AcDbEntity
  8
PEF-230A
  6
CONTINUOUS
100
AcDbCircle
 10
666.8079137551212
 20
209.8958111059912
 30
0.0
 40
1.5
100
AcDbArc
 50
0.0
 51
90.0
  0
LINE
  5
B9C
330
1F
100
AcDbEntity
  8
PEF-230A
  6
CONTINUOUS
100
AcDbLine
 10
657.9079137551216
 20
228.8958111059913
 30
0.0
 11
655.6079137551215
 21
228.8958111059911
 31
0.0
  0
ARC
  5
B9D
330
1F
100
AcDbEntity
  8
PEF-230A
  6
CONTINUOUS
100
AcDbCircle
 10
642.6079137551212
 20
230.908400402275
 30
0.0
 40
3.0
100
AcDbArc
 50
0.0
 51
84.09385888622862
  0
LINE
  5
B9E
330
1F
100
AcDbEntity
  8
PEF-230A
  6
HIDDEN
100
AcDbLine
 10
645.6079137551212
 20
222.3958111059914
 30
0.0
 11
655.6079137551209
 21
222.3958111059914
 31
0.0
  0
LINE
  5
B9F
330
1F
100
AcDbEntity
  8
PEF-230A
  6
CONTINUOUS
100
AcDbLine
 10
643.6079137551212
 20
228.8958111059911
 30
0.0
 11
645.6079137551212
 21
228.8958111059914
 31
0.0
  0
LINE
  5
BA0
330
1F
100
AcDbEntity
  8
PEF-230A
  6
CONTINUOUS
100
AcDbLine
 10
659.4079137551212
 20
226.3958111059913
 30
0.0
 11
666.8079137551216
 21
226.3958111059913
 31
0.0
  0
ARC
  5
BA1
330
1F
100
AcDbEntity
  8
PEF-230A
  6
CONTINUOUS
100
AcDbCircle
 10
659.4079137551212
 20
227.8958111059913
 30
0.0
 40
1.5
100
AcDbArc
 50
180.0
 51
270.0
  0
ARC
  5
BA2
330
1F
100
AcDbEntity
  8
PEF-230A
  6
CONTINUOUS
100
AcDbCircle
 10
666.8079137551215
 20
227.8958111059913
 30
0.0
 40
1.5
100
AcDbArc
 50
270.0
 51
0.0
  0
LINE
  5
BA3
330
1F
100
AcDbEntity
  8
PEF-230A
  6
CONTINUOUS
100
AcDbLine
 10
670.6079137551212
 20
228.8958111059913
 30
0.0
 11
668.3079137551214
 21
228.8958111059911
 31
0.0
  0
LINE
  5
BA4
330
1F
100
AcDbEntity
  8
PEF-230A
  6
CONTINUOUS
100
AcDbLine
 10
686.7201420063537
 20
219.7910374726461
 30
0.0
 11
686.6050223555774
 21
223.3956020642585
 31
0.0
  0
LINE
  5
BA5
330
1F
100
AcDbEntity
  8
PEF-230A
  6
CONTINUOUS
100
AcDbLine
 10
693.0411725509117
 20
220.7933212921134
 30
0.0
 11
693.8556514686188
 21
215.6567062767654
 31
0.0
  0
LINE
  5
BA6
330
1F
100
AcDbEntity
  8
PEF-230A
  6
CONTINUOUS
100
AcDbLine
 10
692.670458241514
 20
215.4687780606149
 30
0.0
 11
691.8874240075541
 21
220.4070831735508
 31
0.0
  0
ARC
  5
BA7
330
1F
100
AcDbEntity
  8
PEF-230A
  6
CONTINUOUS
100
AcDbCircle
 10
689.9121019623797
 20
220.0938694799666
 30
0.0
 40
2.00000000000005
100
AcDbArc
 50
9.009999999999745
 51
189.0099999999995
  0
LINE
  5
BA8
330
1F
100
AcDbEntity
  8
PEF-230A
  6
CONTINUOUS
100
AcDbLine
 10
693.8556514686188
 20
215.6567062767654
 30
0.0
 11
692.670458241514
 21
215.4687780606149
 31
0.0
  0
LINE
  5
BA9
330
1F
100
AcDbEntity
  8
PEF-230A
  6
CONTINUOUS
100
AcDbLine
 10
686.7201420063537
 20
219.7910374726461
 30
0.0
 11
687.534620924061
 21
214.6544224572962
 31
0.0
  0
LINE
  5
BAA
330
1F
100
AcDbEntity
  8
PEF-230A
  6
CONTINUOUS
100
AcDbLine
 10
687.9367799172058
 20
219.7806557863826
 30
0.0
 11
688.7198141511653
 21
214.842350673447
 31
0.0
  0
LINE
  5
BAB
330
1F
100
AcDbEntity
  8
PEF-230A
  6
CONTINUOUS
100
AcDbLine
 10
688.7198141511658
 20
214.8423506734468
 30
0.0
 11
687.534620924061
 21
214.6544224572962
 31
0.0
  0
LINE
  5
BAC
330
1F
100
AcDbEntity
  8
PEF-230A
  6
CONTINUOUS
100
AcDbLine
 10
686.0094778138666
 20
225.5500150751135
 30
0.0
 11
684.3651059225503
 21
235.9204558122784
 31
0.0
  0
LINE
  5
BAD
330
1F
100
AcDbEntity
  8
PEF-230A
  6
CONTINUOUS
100
AcDbLine
 10
684.3651059225503
 20
235.9204558122784
 30
0.0
 11
690.2910720580734
 21
236.8600968930305
 31
0.0
  0
LINE
  5
BAE
330
1F
100
AcDbEntity
  8
PEF-230A
  6
CONTINUOUS
100
AcDbLine
 10
690.2910720580734
 20
236.8600968930305
 30
0.0
 11
691.9354439493892
 21
226.4896561558654
 31
0.0
  0
LINE
  5
BAF
330
1F
100
AcDbEntity
  8
PEF-230A
  6
CONTINUOUS
100
AcDbLine
 10
686.6050223555774
 20
223.3956020642585
 30
0.0
 11
686.9112155087449
 21
225.6929976306653
 31
0.0
  0
LINE
  5
BB0
330
1F
100
AcDbEntity
  8
PEF-230A
  6
CONTINUOUS
100
AcDbLine
 10
693.0411725509117
 20
220.7933212921134
 30
0.0
 11
692.0355771241538
 21
224.2566890558321
 31
0.0
  0
LINE
  5
BB1
330
1F
100
AcDbEntity
  8
PEF-230A
  6
CONTINUOUS
100
AcDbLine
 10
692.0355771241538
 20
224.2566890558321
 30
0.0
 11
691.0337062545107
 21
226.3466736003139
 31
0.0
  0
LINE
  5
BB2
330
1F
100
AcDbEntity
  8
PEF-230A
  6
CONTINUOUS
100
AcDbLine
 10
691.9354439493892
 20
226.4896561558654
 30
0.0
 11
686.0094778138666
 21
225.5500150751135
 31
0.0
  0
LINE
  5
BB4
330
1F
100
AcDbEntity
  8
PEF-230A
  6
CONTINUOUS
100
AcDbLine
 10
680.5823676379746
 20
269.2464496234339
 30
0.0
 11
688.1331588201227
 21
253.0537256779954
 31
0.0
  0
LINE
  5
BB5
330
1F
100
AcDbEntity
  8
PEF-230A
  6
CONTINUOUS
100
AcDbLine
 10
676.0508287027914
 20
267.1333583147303
 30
0.0
 11
683.6016198849392
 21
250.9406343692919
 31
0.0
  0
LINE
  5
BB6
330
1F
100
AcDbEntity
  8
PEF-230A
  6
CONTINUOUS
100
AcDbLine
 10
688.1331588201227
 20
253.0537256779954
 30
0.0
 11
683.6016198849392
 21
250.9406343692918
 31
0.0
  0
LINE
  5
BB7
330
1F
100
AcDbEntity
  8
PEF-230A
  6
CONTINUOUS
100
AcDbLine
 10
679.7828297524652
 20
268.422626915306
 30
0.0
 11
678.4770543950591
 21
268.5059001919997
 31
0.0
  0
LINE
  5
BB8
330
1F
100
AcDbEntity
  8
PEF-230A
  6
CONTINUOUS
100
AcDbLine
 10
679.2326414835111
 20
272.1409467024735
 30
0.0
 11
678.4331035980017
 21
271.3171239943455
 31
0.0
  0
LINE
  5
BB9
330
1F
100
AcDbEntity
  8
PEF-230A
  6
CONTINUOUS
100
AcDbLine
 10
676.5600650405684
 20
267.8397139784506
 30
0.0
 11
676.0508287027914
 21
267.1333583147305
 31
0.0
  0
LINE
  5
BBA
330
1F
100
AcDbEntity
  8
PEF-230A
  6
CONTINUOUS
100
AcDbLine
 10
677.7269281259105
 20
267.3955898360848
 30
0.0
 11
676.5600650405684
 21
267.8397139784506
 31
0.0
  0
LINE
  5
BBB
330
1F
100
AcDbEntity
  8
PEF-230A
  6
CONTINUOUS
100
AcDbLine
 10
678.4770543950591
 20
268.5059001919997
 30
0.0
 11
677.7269281259105
 21
267.3955898360848
 31
0.0
  0
LINE
  5
BBC
330
1F
100
AcDbEntity
  8
PEF-230A
  6
CONTINUOUS
100
AcDbLine
 10
675.2103388861049
 20
270.7342110574903
 30
0.0
 11
674.701102548328
 21
270.0278553937699
 31
0.0
  0
LINE
  5
BBD
330
1F
100
AcDbEntity
  8
PEF-230A
  6
CONTINUOUS
100
AcDbLine
 10
676.377201971447
 20
270.2900869151243
 30
0.0
 11
675.2103388861049
 21
270.7342110574903
 31
0.0
  0
LINE
  5
BBE
330
1F
100
AcDbEntity
  8
PEF-230A
  6
CONTINUOUS
100
AcDbLine
 10
677.1273282405955
 20
271.4003972710393
 30
0.0
 11
676.377201971447
 21
270.2900869151243
 31
0.0
  0
LINE
  5
BBF
330
1F
100
AcDbEntity
  8
PEF-230A
  6
CONTINUOUS
100
AcDbLine
 10
678.4331035980017
 20
271.3171239943455
 30
0.0
 11
677.1273282405955
 21
271.4003972710393
 31
0.0
  0
LINE
  5
BC0
330
1F
100
AcDbEntity
  8
PEF-230A
  6
CONTINUOUS
100
AcDbLine
 10
680.5823676379746
 20
269.2464496234339
 30
0.0
 11
679.7828297524652
 21
268.422626915306
 31
0.0
  0
LINE
  5
BC1
330
1F
100
AcDbEntity
  8
PEF-230A
  6
CONTINUOUS
100
AcDbLine
 10
709.9905870480157
 20
230.642224204248
 30
0.0
 11
707.3033278578982
 21
233.0473804308224
 31
0.0
  0
LINE
  5
BC2
330
1F
100
AcDbEntity
  8
PEF-230A
  6
CONTINUOUS
100
AcDbLine
 10
703.1530036339963
 20
229.4408301763468
 30
0.0
 11
702.1959727690036
 21
231.5517239583892
 31
0.0
  0
LINE
  5
BC3
330
1F
100
AcDbEntity
  8
PEF-230A
  6
CONTINUOUS
100
AcDbLine
 10
701.5068159594052
 20
230.9528602231861
 30
0.0
 11
706.0357603951778
 21
234.888424007155
 31
0.0
  0
LINE
  5
BC4
330
1F
100
AcDbEntity
  8
PEF-230A
  6
CONTINUOUS
100
AcDbLine
 10
705.1597129831929
 20
226.444289501347
 30
0.0
 11
708.5710514154887
 21
222.5186099648043
 31
0.0
  0
LINE
  5
BC5
330
1F
100
AcDbEntity
  8
PEF-230A
  6
CONTINUOUS
100
AcDbLine
 10
709.4768403026431
 20
223.3057227215982
 30
0.0
 11
706.1972038160027
 21
227.079843084742
 31
0.0
  0
ARC
  5
BC6
330
1F
100
AcDbEntity
  8
PEF-230A
  6
CONTINUOUS
100
AcDbCircle
 10
707.7068519612602
 20
228.391697679398
 30
0.0
 40
2.000000000000002
100
AcDbArc
 50
40.99000000000089
 51
220.9900000000033
  0
LINE
  5
BC7
330
1F
100
AcDbEntity
  8
PEF-230A
  6
CONTINUOUS
100
AcDbLine
 10
705.1597129831929
 20
226.444289501347
 30
0.0
 11
703.1530036339963
 21
229.4408301763468
 31
0.0
  0
LINE
  5
BC8
330
1F
100
AcDbEntity
  8
PEF-230A
  6
CONTINUOUS
100
AcDbLine
 10
709.9905870480157
 20
230.642224204248
 30
0.0
 11
713.4019254803131
 21
226.7165446677044
 31
0.0
  0
LINE
  5
BC9
330
1F
100
AcDbEntity
  8
PEF-230A
  6
CONTINUOUS
100
AcDbLine
 10
709.2165001065177
 20
229.7035522740543
 30
0.0
 11
712.4961365931582
 21
225.9294319109105
 31
0.0
  0
LINE
  5
BCA
330
1F
100
AcDbEntity
  8
PEF-230A
  6
CONTINUOUS
100
AcDbLine
 10
712.4961365931582
 20
225.9294319109105
 30
0.0
 11
713.4019254803131
 21
226.7165446677044
 31
0.0
  0
LINE
  5
BCB
330
1F
100
AcDbEntity
  8
PEF-230A
  6
CONTINUOUS
100
AcDbLine
 10
708.5710514154887
 20
222.5186099648043
 30
0.0
 11
709.4768403026431
 21
223.3057227215982
 31
0.0
  0
LINE
  5
BCC
330
1F
100
AcDbEntity
  8
PEF-230A
  6
CONTINUOUS
100
AcDbLine
 10
707.3033278578982
 20
233.0473804308224
 30
0.0
 11
705.3466035855792
 21
234.2895602719524
 31
0.0
  0
LINE
  5
BD6
330
1F
100
AcDbEntity
  8
PEF-230A
  6
CONTINUOUS
100
AcDbLine
 10
623.6079137551204
 20
426.3958111059912
 30
0.0
 11
653.6079137551207
 21
426.3958111059912
 31
0.0
  0
LINE
  5
BD7
330
1F
100
AcDbEntity
  8
PEF-230A
  6
CENTER2
100
AcDbLine
 10
450.2016398864859
 20
296.3958111059906
 30
0.0
 11
674.2694042131788
 21
296.3958111059913
 31
0.0
  0
LINE
  5
BDC
330
1F
100
AcDbEntity
  8
PEF-230A
  6
CONTINUOUS
100
AcDbLine
 10
491.6079137551204
 20
411.495811105991
 30
0.0
 11
605.6079137551212
 21
411.4958111059912
 31
0.0
  0
LINE
  5
BDD
330
1F
100
AcDbEntity
  8
PEF-230A
  6
CONTINUOUS
100
AcDbLine
 10
491.6079137551204
 20
406.3958111059909
 30
0.0
 11
621.6079137551204
 21
406.3958111059911
 31
0.0
  0
LINE
  5
BDE
330
1F
100
AcDbEntity
  8
PEF-230A
  6
CONTINUOUS
100
AcDbLine
 10
621.6079137551206
 20
407.5958111059913
 30
0.0
 11
491.6079137551204
 21
407.5958111059908
 31
0.0
  0
LINE
  5
BEE
330
1F
100
AcDbEntity
  8
PEF-230A
  6
CONTINUOUS
100
AcDbLine
 10
485.8560728633232
 20
317.3958111059906
 30
0.0
 11
485.8560728633229
 21
401.3958111059905
 31
0.0
  0
LINE
  5
BF0
330
1F
100
AcDbEntity
  8
PEF-230A
  6
CONTINUOUS
100
AcDbLine
 10
465.3560728633234
 20
305.8958111059908
 30
0.0
 11
484.3560728633232
 21
305.8958111059911
 31
0.0
  0
LINE
  5
BF1
330
1F
100
AcDbEntity
  8
PEF-230A
  6
CONTINUOUS
100
AcDbLine
 10
484.3560728633232
 20
286.8958111059911
 30
0.0
 11
465.3560728633234
 21
286.8958111059908
 31
0.0
  0
LINE
  5
BF2
330
1F
100
AcDbEntity
  8
PEF-230A
  6
HIDDEN
100
AcDbLine
 10
485.8560728633232
 20
302.3958111059908
 30
0.0
 11
465.3560728633231
 21
302.3958111059906
 31
0.0
  0
LINE
  5
BF3
330
1F
100
AcDbEntity
  8
PEF-230A
  6
HIDDEN
100
AcDbLine
 10
465.3560728633231
 20
301.4958111059906
 30
0.0
 11
485.8560728633232
 21
301.4958111059907
 31
0.0
  0
LINE
  5
BF4
330
1F
100
AcDbEntity
  8
PEF-230A
  6
HIDDEN
100
AcDbLine
 10
485.8560728633232
 20
291.2958111059908
 30
0.0
 11
465.3560728633231
 21
291.2958111059903
 31
0.0
  0
LINE
  5
BF5
330
1F
100
AcDbEntity
  8
PEF-230A
  6
HIDDEN
100
AcDbLine
 10
465.3560728633232
 20
290.3958111059906
 30
0.0
 11
485.8560728633232
 21
290.3958111059908
 31
0.0
  0
ARC
  5
BF6
330
1F
100
AcDbEntity
  8
PEF-230A
  6
CONTINUOUS
100
AcDbCircle
 10
467.3560728633232
 20
317.1742349823546
 30
0.0
 40
2.000000000000003
100
AcDbArc
 50
83.99099404250561
 51
180.0
  0
LINE
  5
BFB
330
1F
100
AcDbEntity
  8
PEF-230A
  6
CONTINUOUS
100
AcDbLine
 10
491.6079137551206
 20
340.3706421038876
 30
0.0
 11
491.6079137551206
 21
318.2237815199349
 31
0.0
  0
LINE
  5
C08
330
1F
100
AcDbEntity
  8
PEF-230A
  6
CONTINUOUS
100
AcDbLine
 10
472.3560728633237
 20
305.8958111059911
 30
0.0
 11
472.3560728633237
 21
318.6589690007274
 31
0.0
  0
CIRCLE
  5
C09
330
1F
100
AcDbEntity
  8
PEF-230A
  6
CONTINUOUS
100
AcDbCircle
 10
474.8560728633234
 20
296.3958111059906
 30
0.0
 40
6.999999999999687
  0
CIRCLE
  5
C0A
330
1F
100
AcDbEntity
  8
PEF-230A
  6
CONTINUOUS
100
AcDbCircle
 10
474.8560728633234
 20
296.3958111059906
 30
0.0
 40
5.633974192430982
  0
LINE
  5
C0B
330
1F
100
AcDbEntity
  8
PEF-230A
  6
CONTINUOUS
100
AcDbLine
 10
477.8560714645728
 20
298.1278611059906
 30
0.0
 11
477.8560714645728
 21
294.6637611059906
 31
0.0
  0
LINE
  5
C0C
330
1F
100
AcDbEntity
  8
PEF-230A
  6
CONTINUOUS
100
AcDbLine
 10
471.8560742620736
 20
294.6637611059906
 30
0.0
 11
471.8560742620736
 21
298.1278611059908
 31
0.0
  0
LINE
  5
C0D
330
1F
100
AcDbEntity
  8
PEF-230A
  6
CONTINUOUS
100
AcDbLine
 10
474.8560728633233
 20
292.9317111059907
 30
0.0
 11
471.8560742620736
 21
294.6637611059906
 31
0.0
  0
LINE
  5
C0E
330
1F
100
AcDbEntity
  8
PEF-230A
  6
CONTINUOUS
100
AcDbLine
 10
477.8560714645728
 20
294.6637611059906
 30
0.0
 11
474.8560728633233
 21
292.9317111059907
 31
0.0
  0
LINE
  5
C0F
330
1F
100
AcDbEntity
  8
PEF-230A
  6
CONTINUOUS
100
AcDbLine
 10
471.8560742620736
 20
298.1278611059908
 30
0.0
 11
474.8560728633233
 21
299.8599111059906
 31
0.0
  0
LINE
  5
C10
330
1F
100
AcDbEntity
  8
PEF-230A
  6
CONTINUOUS
100
AcDbLine
 10
474.8560728633233
 20
299.8599111059906
 30
0.0
 11
477.8560714645728
 21
298.1278611059906
 31
0.0
  0
LINE
  5
C11
330
1F
100
AcDbEntity
  8
PEF-230A
  6
CONTINUOUS
100
AcDbLine
 10
484.0654424323591
 20
317.4264037829343
 30
0.0
 11
467.5654424323591
 21
319.1632458881973
 31
0.0
  0
LINE
  5
C13
330
1F
100
AcDbEntity
  8
PEF-230A
  6
CONTINUOUS
100
AcDbLine
 10
491.6079137551203
 20
315.9209801080939
 30
0.0
 11
485.8560728633232
 21
317.3958111059906
 31
0.0
  0
ARC
  5
C14
330
1F
100
AcDbEntity
  8
PEF-230A
  6
HIDDEN
100
AcDbCircle
 10
483.856072863323
 20
315.4373928770914
 30
0.0
 40
2.0
100
AcDbArc
 50
0.0
 51
83.99099404250561
  0
LINE
  5
C29
330
1F
100
AcDbEntity
  8
PEF-230A
  6
CONTINUOUS
100
AcDbLine
 10
491.6079137551204
 20
340.3706421038874
 30
0.0
 11
485.8560728633231
 21
338.8958111059908
 31
0.0
  0
LINE
  5
C32
330
1F
100
AcDbEntity
  8
PEF-230A
  6
CONTINUOUS
100
AcDbLine
 10
465.3560728633221
 20
413.8958111059904
 30
0.0
 11
469.8560728633223
 21
413.8958111059904
 31
0.0
  0
LINE
  5
C33
330
1F
100
AcDbEntity
  8
PEF-230A
  6
CONTINUOUS
100
AcDbLine
 10
465.3560728633221
 20
431.8958111059905
 30
0.0
 11
484.3560728633224
 21
431.8958111059906
 31
0.0
  0
LINE
  5
C34
330
1F
100
AcDbEntity
  8
PEF-230A
  6
CONTINUOUS
100
AcDbLine
 10
466.3560728633227
 20
411.3958111059906
 30
0.0
 11
472.3560728633232
 21
411.3958111059906
 31
0.0
  0
ARC
  5
C35
330
1F
100
AcDbEntity
  8
PEF-230A
  6
CENTER2
100
AcDbCircle
 10
467.3560728633228
 20
406.1742349823543
 30
0.0
 40
1.999999999999958
100
AcDbArc
 50
83.99099404250561
 51
180.0
  0
LINE
  5
C37
330
1F
100
AcDbEntity
  8
PEF-230A
  6
CONTINUOUS
100
AcDbLine
 10
465.3560728633221
 20
431.8958111059905
 30
0.0
 11
465.3560728633221
 21
413.8958111059904
 31
0.0
  0
LINE
  5
C39
330
1F
100
AcDbEntity
  8
PEF-230A
  6
CONTINUOUS
100
AcDbLine
 10
465.3560728633228
 20
410.3958111059906
 30
0.0
 11
466.3560728633227
 21
411.3958111059906
 31
0.0
  0
LINE
  5
C3A
330
1F
100
AcDbEntity
  8
PEF-230A
  6
HIDDEN
100
AcDbLine
 10
479.3560728633222
 20
423.3958111059906
 30
0.0
 11
479.3560728633223
 21
416.3958111059906
 31
0.0
  0
LINE
  5
C3B
330
1F
100
AcDbEntity
  8
PEF-230A
  6
HIDDEN
100
AcDbLine
 10
470.3560728633223
 20
423.3958111059906
 30
0.0
 11
470.3560728633223
 21
416.3958111059906
 31
0.0
  0
LINE
  5
C3C
330
1F
100
AcDbEntity
  8
PEF-230A
  6
CONTINUOUS
100
AcDbLine
 10
484.3560728633224
 20
431.8958111059906
 30
0.0
 11
484.3560728633224
 21
415.3958111059906
 31
0.0
  0
LINE
  5
C3D
330
1F
100
AcDbEntity
  8
PEF-230A
  6
CONTINUOUS
100
AcDbLine
 10
484.3560728633228
 20
401.3958111059909
 30
0.0
 11
491.6079137551203
 21
401.3958111059909
 31
0.0
  0
LINE
  5
C40
330
1F
100
AcDbEntity
  8
PEF-230A
  6
CONTINUOUS
100
AcDbLine
 10
473.3560728633234
 20
415.3958111059906
 30
0.0
 11
483.3560728633234
 21
415.3958111059908
 31
0.0
  0
LINE
  5
C41
330
1F
100
AcDbEntity
  8
PEF-230A
  6
CONTINUOUS
100
AcDbLine
 10
484.3560728633224
 20
415.3958111059906
 30
0.0
 11
480.3560728633224
 21
415.3958111059906
 31
0.0
  0
LINE
  5
C42
330
1F
100
AcDbEntity
  8
PEF-230A
  6
CENTER2
100
AcDbLine
 10
467.5654424323588
 20
408.1632458881975
 30
0.0
 11
482.5654424323587
 21
406.5842985197765
 31
0.0
  0
LINE
  5
C43
330
1F
100
AcDbEntity
  8
PEF-230A
  6
CONTINUOUS
100
AcDbLine
 10
480.3560728633224
 20
416.3958111059907
 30
0.0
 11
469.8560728633223
 21
416.3958111059907
 31
0.0
  0
LINE
  5
C44
330
1F
100
AcDbEntity
  8
PEF-230A
  6
CONTINUOUS
100
AcDbLine
 10
472.3560728633232
 20
411.3958111059906
 30
0.0
 11
472.3560728633232
 21
414.3958111059906
 31
0.0
  0
LINE
  5
C45
330
1F
100
AcDbEntity
  8
PEF-230A
  6
CONTINUOUS
100
AcDbLine
 10
472.3560728633232
 20
414.3958111059906
 30
0.0
 11
473.3560728633234
 21
415.3958111059906
 31
0.0
  0
LINE
  5
C46
330
1F
100
AcDbEntity
  8
PEF-230A
  6
CONTINUOUS
100
AcDbLine
 10
469.8560728633223
 20
416.3958111059907
 30
0.0
 11
469.8560728633223
 21
413.8958111059904
 31
0.0
  0
LINE
  5
C47
330
1F
100
AcDbEntity
  8
PEF-230A
  6
CONTINUOUS
100
AcDbLine
 10
480.3560728633224
 20
416.3958111059907
 30
0.0
 11
480.3560728633224
 21
415.3958111059906
 31
0.0
  0
LINE
  5
C48
330
1F
100
AcDbEntity
  8
PEF-230A
  6
CONTINUOUS
100
AcDbLine
 10
491.6079137551204
 20
407.5958111059908
 30
0.0
 11
491.6079137551204
 21
176.5376274737833
 31
0.0
  0
ARC
  5
C49
330
1F
100
AcDbEntity
  8
PEF-230A
  6
CENTER2
100
AcDbCircle
 10
482.3560728633228
 20
404.5952876139336
 30
0.0
 40
2.0
100
AcDbArc
 50
0.0
 51
83.99099404250561
  0
LINE
  5
C4A
330
1F
100
AcDbEntity
  8
PEF-230A
  6
CONTINUOUS
100
AcDbLine
 10
484.3560728633232
 20
414.3958111059906
 30
0.0
 11
483.3560728633234
 21
415.3958111059908
 31
0.0
  0
LINE
  5
C4B
330
1F
100
AcDbEntity
  8
PEF-230A
  6
CONTINUOUS
100
AcDbLine
 10
491.6079137551204
 20
407.5958111059908
 30
0.0
 11
491.6079137551204
 21
411.495811105991
 31
0.0
  0
LINE
  5
C4D
330
1F
100
AcDbEntity
  8
PEF-230A
  6
CONTINUOUS
100
AcDbLine
 10
510.6079137551203
 20
411.495811105991
 30
0.0
 11
510.6079137551203
 21
407.5958111059908
 31
0.0
  0
LINE
  5
C4E
330
1F
100
AcDbEntity
  8
PEF-230A
  6
HIDDEN
100
AcDbLine
 10
467.8560728633224
 20
423.3958111059906
 30
0.0
 11
481.8560728633221
 21
423.3958111059906
 31
0.0
  0
LINE
  5
C4F
330
1F
100
AcDbEntity
  8
PEF-230A
  6
HIDDEN
100
AcDbLine
 10
467.8560728633224
 20
431.8958111059906
 30
0.0
 11
467.8560728633224
 21
423.3958111059906
 31
0.0
  0
LINE
  5
C50
330
1F
100
AcDbEntity
  8
PEF-230A
  6
HIDDEN
100
AcDbLine
 10
481.8560728633221
 20
431.8958111059906
 30
0.0
 11
481.8560728633221
 21
423.3958111059906
 31
0.0
  0
LINE
  5
D01
330
1F
100
AcDbEntity
  8
PEF-230A
  6
CONTINUOUS
100
AcDbLine
 10
529.6079137551203
 20
411.4958111059911
 30
0.0
 11
529.6079137551203
 21
407.5958111059908
 31
0.0
  0
LINE
  5
D02
330
1F
100
AcDbEntity
  8
PEF-230A
  6
CONTINUOUS
100
AcDbLine
 10
548.6079137551204
 20
411.4958111059911
 30
0.0
 11
548.6079137551204
 21
407.5958111059908
 31
0.0
  0
LINE
  5
D03
330
1F
100
AcDbEntity
  8
PEF-230A
  6
CONTINUOUS
100
AcDbLine
 10
567.6079137551204
 20
411.4958111059911
 30
0.0
 11
567.6079137551202
 21
407.5958111059908
 31
0.0
  0
LINE
  5
D06
330
1F
100
AcDbEntity
  8
PEF-230A
  6
CONTINUOUS
100
AcDbLine
 10
621.6079137551204
 20
406.3958111059912
 30
0.0
 11
598.6079137551207
 21
406.3958111059912
 31
0.0
  0
LINE
  5
D27
330
1F
100
AcDbEntity
  8
PEF-230A
  6
CONTINUOUS
100
AcDbLine
 10
586.6079137551204
 20
411.4958111059912
 30
0.0
 11
586.6079137551202
 21
407.5958111059908
 31
0.0
  0
LINE
  5
D29
330
1F
100
AcDbEntity
  8
PEF-230A
  6
CONTINUOUS
100
AcDbLine
 10
605.6079137551212
 20
411.4958111059912
 30
0.0
 11
605.6079137551204
 21
407.5958111059911
 31
0.0
  0
LINE
  5
D31
330
1F
100
AcDbEntity
  8
PEF-230A
  6
CONTINUOUS
100
AcDbLine
 10
623.6079137551204
 20
426.3958111059912
 30
0.0
 11
621.6079137551207
 21
424.3958111059908
 31
0.0
  0
LINE
  5
D3C
330
1F
100
AcDbEntity
  8
PEF-230A
  6
CONTINUOUS
100
AcDbLine
 10
657.9079137551206
 20
383.8958111059913
 30
0.0
 11
657.9079137551206
 21
363.8958111059912
 31
0.0
  0
LINE
  5
D3D
330
1F
100
AcDbEntity
  8
PEF-230A
  6
CONTINUOUS
100
AcDbLine
 10
655.6079137551208
 20
363.8958111059912
 30
0.0
 11
655.6079137551208
 21
383.8958111059913
 31
0.0
  0
LINE
  5
D3E
330
1F
100
AcDbEntity
  8
PEF-230A
  6
CONTINUOUS
100
AcDbLine
 10
670.6079137551206
 20
415.9973621899056
 30
0.0
 11
670.6079137551207
 21
363.8958111059912
 31
0.0
  0
LINE
  5
D3F
330
1F
100
AcDbEntity
  8
PEF-230A
  6
CONTINUOUS
100
AcDbLine
 10
668.3079137551207
 20
363.8958111059912
 30
0.0
 11
668.3079137551206
 21
415.9973621899056
 31
0.0
  0
ARC
  5
D41
330
1F
100
AcDbEntity
  8
PEF-230A
  6
CONTINUOUS
100
AcDbCircle
 10
655.6079137551208
 20
281.3958111059914
 30
0.0
 40
17.50000000000005
100
AcDbArc
 50
24.99999999999646
 51
90.0
  0
ARC
  5
D42
330
1F
100
AcDbEntity
  8
PEF-230A
  6
CONTINUOUS
100
AcDbCircle
 10
655.6079137551208
 20
281.3958111059914
 30
0.0
 40
12.5
100
AcDbArc
 50
24.99999999999646
 51
90.0
  0
LINE
  5
D45
330
1F
100
AcDbEntity
  8
PEF-230A
  6
CONTINUOUS
100
AcDbLine
 10
657.9079137551206
 20
363.8958111059912
 30
0.0
 11
655.6079137551208
 21
363.8958111059912
 31
0.0
  0
LINE
  5
D49
330
1F
100
AcDbEntity
  8
PEF-230A
  6
CONTINUOUS
100
AcDbLine
 10
659.4079137551207
 20
366.3958111059911
 30
0.0
 11
666.8079137551208
 21
366.3958111059912
 31
0.0
  0
ARC
  5
D4A
330
1F
100
AcDbEntity
  8
PEF-230A
  6
CONTINUOUS
100
AcDbCircle
 10
659.4079137551207
 20
364.8958111059911
 30
0.0
 40
1.5
100
AcDbArc
 50
90.0
 51
180.0
  0
ARC
  5
D4B
330
1F
100
AcDbEntity
  8
PEF-230A
  6
CONTINUOUS
100
AcDbCircle
 10
666.8079137551208
 20
364.8958111059913
 30
0.0
 40
1.5
100
AcDbArc
 50
0.0
 51
90.0
  0
LINE
  5
D4C
330
1F
100
AcDbEntity
  8
PEF-230A
  6
CONTINUOUS
100
AcDbLine
 10
670.6079137551207
 20
363.8958111059912
 30
0.0
 11
668.3079137551207
 21
363.8958111059912
 31
0.0
  0
LINE
  5
D4F
330
1F
100
AcDbEntity
  8
PEF-230A
  6
CENTER2
100
AcDbLine
 10
665.7324541958727
 20
398.9262943780401
 30
0.0
 11
673.7324541958727
 21
398.9262943780401
 31
0.0
  0
LINE
  5
D50
330
1F
100
AcDbEntity
  8
PEF-230A
  6
CONTINUOUS
100
AcDbLine
 10
655.6079137551208
 20
383.8958111059913
 30
0.0
 11
657.9079137551206
 21
383.8958111059913
 31
0.0
  0
LINE
  5
D55
330
1F
100
AcDbEntity
  8
PEF-230A
  6
CONTINUOUS
100
AcDbLine
 10
659.4079137551207
 20
381.3958111059911
 30
0.0
 11
666.8079137551208
 21
381.3958111059913
 31
0.0
  0
ARC
  5
D56
330
1F
100
AcDbEntity
  8
PEF-230A
  6
CONTINUOUS
100
AcDbCircle
 10
659.4079137551207
 20
382.8958111059911
 30
0.0
 40
1.5
100
AcDbArc
 50
180.0
 51
270.0
  0
ARC
  5
D57
330
1F
100
AcDbEntity
  8
PEF-230A
  6
CONTINUOUS
100
AcDbCircle
 10
666.8079137551208
 20
382.8958111059912
 30
0.0
 40
1.5
100
AcDbArc
 50
270.0
 51
0.0
  0
LINE
  5
D58
330
1F
100
AcDbEntity
  8
PEF-230A
  6
HIDDEN
100
AcDbLine
 10
668.3079137551206
 20
388.3552265661746
 30
0.0
 11
670.6079137551207
 21
388.3552265661746
 31
0.0
  0
LINE
  5
D5A
330
1F
100
AcDbEntity
  8
PEF-230A
  6
HIDDEN
100
AcDbLine
 10
668.3079137551207
 20
409.4973621899057
 30
0.0
 11
670.6079137551204
 21
409.4973621899057
 31
0.0
  0
LINE
  5
D5B
330
1F
100
AcDbEntity
  8
PEF-230A
  6
CONTINUOUS
100
AcDbLine
 10
668.3079137551206
 20
415.9973621899056
 30
0.0
 11
670.6079137551206
 21
415.9973621899056
 31
0.0
  0
LINE
  5
D5F
330
1F
100
AcDbEntity
  8
PEF-230A
  6
CONTINUOUS
100
AcDbLine
 10
653.6079137551207
 20
426.3958111059912
 30
0.0
 11
655.6079137551208
 21
424.3958111059911
 31
0.0
  0
TEXT
  5
F91
330
1F
100
AcDbEntity
  8
PEF-230A
100
AcDbText
 10
372.5150321113868
 20
174.7342447739403
 30
0.0
 40
5.0
  1
PEF-230AR
100
AcDbText
  0
ENDSEC
  0
SECTION
  2
OBJECTS
  0
DICTIONARY
  5
C
330
0
100
AcDbDictionary
  3
ACAD_GROUP
350
D
  3
ACAD_LAYOUT
350
1A
  3
ACAD_MLINESTYLE
350
17
  3
ACAD_PLOTSETTINGS
350
19
  3
ACAD_PLOTSTYLENAME
350
E
  3
ACADDIM
350
453
  3
DWGPROPS
350
1070
  3
ACDBHEADERROUNDTRIPXREC
350
10CC
  0
DICTIONARY
  5
1095
330
1F
100
AcDbDictionary
280
     1
  3
ACAD_LAYOUTSELFREF
360
10ED
  0
DICTIONARY
  5
1093
330
1B
100
AcDbDictionary
280
     1
  3
ACAD_LAYOUTSELFREF
360
10EC
  0
DICTIONARY
  5
D
102
{ACAD_REACTORS
330
C
102
}
330
C
100
AcDbDictionary
  0
DICTIONARY
  5
1A
102
{ACAD_REACTORS
330
C
102
}
330
C
100
AcDbDictionary
  0
DICTIONARY
  5
17
102
{ACAD_REACTORS
330
C
102
}
330
C
100
AcDbDictionary
  3
STANDARD
350
18
  0
DICTIONARY
  5
19
102
{ACAD_REACTORS
330
C
102
}
330
C
100
AcDbDictionary
  0
ACDBDICTIONARYWDFLT
  5
E
102
{ACAD_REACTORS
330
C
102
}
330
C
100
AcDbDictionary
281
     1
  3
Normal
350
F
100
AcDbDictionaryWithDefault
340
F
  0
XRECORD
  5
453
102
{ACAD_REACTORS
330
C
102
}
330
C
100
AcDbXrecord
 90
   990106
  3

 60
     0
 61
     0
 62
     4
 63
     4
 64
     1
 65
     0
 66
     0
 67
     3
 68
     1
 69
     0
 70
     0
 71
     0
 72
     0
 40
0.0
170
     1
340
0
  0
XRECORD
  5
1070
102
{ACAD_REACTORS
330
C
102
}
330
C
100
AcDbXrecord
  1
DWGPROPS COOKIE
  2

  3

  4

  6

  7

  8
한신
  9

300
=
301
=
302
=
303
=
304
=
305
=
306
=
307
=
308
=
309
=
 40
0.4118643518518521
 41
2451745.473101736
 42
2451814.601795138
  1

 90
        0
  0
DICTIONARY
  5
10CC
102
{ACAD_REACTORS
330
C
102
}
330
C
100
AcDbDictionary
  3
TSTACKALIGN
350
10CD
  3
TSTACKSIZE
350
10CE
  3
HYPERLINKBASE
350
10CF
  3
STYLESHEET
350
10D0
  3
LAYOUTDICT
350
10D1
  3
PLOTSETDICT
350
10D2
  3
PLOTSTYLNAMDICT
350
10D3
  3
LWETCUNION
350
10D4
  3
INSUNITS
350
10D5
  3
CEPSNTYPE
350
10D6
  3
FINGERPRINTGUID
350
10D7
  3
VERSIONGUID
350
10D8
  3
PSVPSCALE
350
10D9
  3
PUCSORTHOREF
350
10DA
  3
PUCSORTHOVIEW
350
10DB
  3
PUCSBASE
350
10DC
  3
PUCSORGTOP
350
10DD
  3
PUCSORGBOTTOM
350
10DE
  3
PUCSORGLEFT
350
10DF
  3
PUCSORGRIGHT
350
10E0
  3
PUCSORGFRONT
350
10E1
  3
PUCSORGBACK
350
10E2
  3
UCSORTHOREF
350
10E3
  3
UCSORTHOVIEW
350
10E4
  3
UCSBASE
350
10E5
  3
UCSORGTOP
350
10E6
  3
UCSORGBOTTOM
350
10E7
  3
UCSORGLEFT
350
10E8
  3
UCSORGRIGHT
350
10E9
  3
UCSORGFRONT
350
10EA
  3
UCSORGBACK
350
10EB
  0
XRECORD
  5
10ED
102
{ACAD_REACTORS
330
1095
102
}
330
1095
100
AcDbXrecord
340
1F
  0
XRECORD
  5
10EC
102
{ACAD_REACTORS
330
1093
102
}
330
1093
100
AcDbXrecord
340
1B
  0
MLINESTYLE
  5
18
102
{ACAD_REACTORS
330
17
102
}
330
17
100
AcDbMlineStyle
  2
STANDARD
 70
     0
  3

 62
   256
 51
90.0
 52
90.0
 71
     2
 49
0.5
 62
   256
  6
BYLAYER
 49
-0.5
 62
   256
  6
BYLAYER
  0
ACDBPLACEHOLDER
  5
F
102
{ACAD_REACTORS
330
E
102
}
330
E
100
AcDbPlaceHolder
280
     0
  0
XRECORD
  5
10CD
102
{ACAD_REACTORS
330
10CC
102
}
330
10CC
100
AcDbXrecord
 90
        1
  0
XRECORD
  5
10CE
102
{ACAD_REACTORS
330
10CC
102
}
330
10CC
100
AcDbXrecord
 90
       70
  0
XRECORD
  5
10CF
102
{ACAD_REACTORS
330
10CC
102
}
330
10CC
100
AcDbXrecord
  1

  0
XRECORD
  5
10D0
102
{ACAD_REACTORS
330
10CC
102
}
330
10CC
100
AcDbXrecord
  1
HANSHIN.ctb
  0
XRECORD
  5
10D1
102
{ACAD_REACTORS
330
10CC
102
}
330
10CC
100
AcDbXrecord
340
1A
  0
XRECORD
  5
10D2
102
{ACAD_REACTORS
330
10CC
102
}
330
10CC
100
AcDbXrecord
340
19
  0
XRECORD
  5
10D3
102
{ACAD_REACTORS
330
10CC
102
}
330
10CC
100
AcDbXrecord
340
E
  0
XRECORD
  5
10D4
102
{ACAD_REACTORS
330
10CC
102
}
330
10CC
100
AcDbXrecord
 90
    10781
  0
XRECORD
  5
10D5
102
{ACAD_REACTORS
330
10CC
102
}
330
10CC
100
AcDbXrecord
 90
        1
  0
XRECORD
  5
10D6
102
{ACAD_REACTORS
330
10CC
102
}
330
10CC
100
AcDbXrecord
 90
        0
  0
XRECORD
  5
10D7
102
{ACAD_REACTORS
330
10CC
102
}
330
10CC
100
AcDbXrecord
  1
{FDEAD576-A652-11D2-9A35-0060089B3A3F}
  0
XRECORD
  5
10D8
102
{ACAD_REACTORS
330
10CC
102
}
330
10CC
100
AcDbXrecord
  1
{C47D3664-23FF-44DE-88D6-4DC2C542EF28}
  0
XRECORD
  5
10D9
102
{ACAD_REACTORS
330
10CC
102
}
330
10CC
100
AcDbXrecord
 40
0.0
  0
XRECORD
  5
10DA
102
{ACAD_REACTORS
330
10CC
102
}
330
10CC
100
AcDbXrecord
340
0
  0
XRECORD
  5
10DB
102
{ACAD_REACTORS
330
10CC
102
}
330
10CC
100
AcDbXrecord
 70
     0
  0
XRECORD
  5
10DC
102
{ACAD_REACTORS
330
10CC
102
}
330
10CC
100
AcDbXrecord
340
0
  0
XRECORD
  5
10DD
102
{ACAD_REACTORS
330
10CC
102
}
330
10CC
100
AcDbXrecord
 10
0.0
 20
0.0
 30
0.0
  0
XRECORD
  5
10DE
102
{ACAD_REACTORS
330
10CC
102
}
330
10CC
100
AcDbXrecord
 10
0.0
 20
0.0
 30
0.0
  0
XRECORD
  5
10DF
102
{ACAD_REACTORS
330
10CC
102
}
330
10CC
100
AcDbXrecord
 10
0.0
 20
0.0
 30
0.0
  0
XRECORD
  5
10E0
102
{ACAD_REACTORS
330
10CC
102
}
330
10CC
100
AcDbXrecord
 10
0.0
 20
0.0
 30
0.0
  0
XRECORD
  5
10E1
102
{ACAD_REACTORS
330
10CC
102
}
330
10CC
100
AcDbXrecord
 10
0.0
 20
0.0
 30
0.0
  0
XRECORD
  5
10E2
102
{ACAD_REACTORS
330
10CC
102
}
330
10CC
100
AcDbXrecord
 10
0.0
 20
0.0
 30
0.0
  0
XRECORD
  5
10E3
102
{ACAD_REACTORS
330
10CC
102
}
330
10CC
100
AcDbXrecord
340
0
  0
XRECORD
  5
10E4
102
{ACAD_REACTORS
330
10CC
102
}
330
10CC
100
AcDbXrecord
 70
     0
  0
XRECORD
  5
10E5
102
{ACAD_REACTORS
330
10CC
102
}
330
10CC
100
AcDbXrecord
340
0
  0
XRECORD
  5
10E6
102
{ACAD_REACTORS
330
10CC
102
}
330
10CC
100
AcDbXrecord
 10
0.0
 20
0.0
 30
0.0
  0
XRECORD
  5
10E7
102
{ACAD_REACTORS
330
10CC
102
}
330
10CC
100
AcDbXrecord
 10
0.0
 20
0.0
 30
0.0
  0
XRECORD
  5
10E8
102
{ACAD_REACTORS
330
10CC
102
}
330
10CC
100
AcDbXrecord
 10
0.0
 20
0.0
 30
0.0
  0
XRECORD
  5
10E9
102
{ACAD_REACTORS
330
10CC
102
}
330
10CC
100
AcDbXrecord
 10
0.0
 20
0.0
 30
0.0
  0
XRECORD
  5
10EA
102
{ACAD_REACTORS
330
10CC
102
}
330
10CC
100
AcDbXrecord
 10
0.0
 20
0.0
 30
0.0
  0
XRECORD
  5
10EB
102
{ACAD_REACTORS
330
10CC
102
}
330
10CC
100
AcDbXrecord
 10
0.0
 20
0.0
 30
0.0
  0
ENDSEC
  0
EOF
