  0
SECTION
  2
HEADER
  9
$ACADVER
  1
AC1014
  9
$ACADMAINTVER
 70
     9
  9
$DWGCODEPAGE
  3
ANSI_949
  9
$INSBASE
 10
0.0
 20
0.0
 30
0.0
  9
$EXTMIN
 10
62.81997819526577
 20
119.851075277956
 30
-0.0000000000000053
  9
$EXTMAX
 10
507.5236523658079
 20
308.8159187822786
 30
0.0000000000000099
  9
$LIMMIN
 10
10.0
 20
10.0
  9
$LIMMAX
 10
580.0
 20
410.0
  9
$ORTHOMODE
 70
     0
  9
$REGENMODE
 70
     1
  9
$FILLMODE
 70
     1
  9
$QTEXTMODE
 70
     0
  9
$MIRRTEXT
 70
     1
  9
$DRAGMODE
 70
     2
  9
$LTSCALE
 40
8.0
  9
$OSMODE
 70
    37
  9
$ATTMODE
 70
     1
  9
$TEXTSIZE
 40
4.0
  9
$TRACEWID
 40
0.05
  9
$TEXTSTYLE
  7
STANDARD
  9
$CLAYER
  8
0
  9
$CELTYPE
  6
BYLAYER
  9
$CECOLOR
 62
   256
  9
$CELTSCALE
 40
1.0
  9
$DELOBJ
 70
     1
  9
$DISPSILH
 70
     0
  9
$DIMSCALE
 40
1.3
  9
$DIMASZ
 40
2.299999999999998
  9
$DIMEXO
 40
0.5
  9
$DIMDLI
 40
8.0
  9
$DIMRND
 40
0.0
  9
$DIMDLE
 40
0.0
  9
$DIMEXE
 40
1.0
  9
$DIMTP
 40
0.0
  9
$DIMTM
 40
0.000000001
  9
$DIMTXT
 40
2.299999999999998
  9
$DIMCEN
 40
0.09
  9
$DIMTSZ
 40
0.0
  9
$DIMTOL
 70
     0
  9
$DIMLIM
 70
     0
  9
$DIMTIH
 70
     0
  9
$DIMTOH
 70
     0
  9
$DIMSE1
 70
     0
  9
$DIMSE2
 70
     0
  9
$DIMTAD
 70
     1
  9
$DIMZIN
 70
     8
  9
$DIMBLK
  1

  9
$DIMASO
 70
     1
  9
$DIMSHO
 70
     1
  9
$DIMPOST
  1

  9
$DIMAPOST
  1

  9
$DIMALT
 70
     0
  9
$DIMALTD
 70
     1
  9
$DIMALTF
 40
25.4
  9
$DIMLFAC
 40
1.0
  9
$DIMTOFL
 70
     1
  9
$DIMTVP
 40
0.0
  9
$DIMTIX
 70
     0
  9
$DIMSOXD
 70
     0
  9
$DIMSAH
 70
     0
  9
$DIMBLK1
  1

  9
$DIMBLK2
  1

  9
$DIMSTYLE
  2
STANDARD
  9
$DIMCLRD
 70
     5
  9
$DIMCLRE
 70
     5
  9
$DIMCLRT
 70
     3
  9
$DIMTFAC
 40
0.7
  9
$DIMGAP
 40
0.5
  9
$DIMJUST
 70
     0
  9
$DIMSD1
 70
     0
  9
$DIMSD2
 70
     0
  9
$DIMTOLJ
 70
     1
  9
$DIMTZIN
 70
     0
  9
$DIMALTZ
 70
     0
  9
$DIMALTTZ
 70
     0
  9
$DIMFIT
 70
     3
  9
$DIMUPT
 70
     1
  9
$DIMUNIT
 70
     2
  9
$DIMDEC
 70
     1
  9
$DIMTDEC
 70
     1
  9
$DIMALTU
 70
     2
  9
$DIMALTTD
 70
     1
  9
$DIMTXSTY
  7
STANDARD
  9
$DIMAUNIT
 70
     0
  9
$LUNITS
 70
     2
  9
$LUPREC
 70
     4
  9
$SKETCHINC
 40
0.1
  9
$FILLETRAD
 40
0.5
  9
$AUNITS
 70
     0
  9
$AUPREC
 70
     0
  9
$MENU
  1
.
  9
$ELEVATION
 40
0.0
  9
$PELEVATION
 40
0.0
  9
$THICKNESS
 40
0.0
  9
$LIMCHECK
 70
     0
  9
$BLIPMODE
 70
     0
  9
$CHAMFERA
 40
0.5
  9
$CHAMFERB
 40
0.5
  9
$CHAMFERC
 40
1.0
  9
$CHAMFERD
 40
0.0
  9
$SKPOLY
 70
     0
  9
$TDCREATE
 40
2451745.464040856
  9
$TDUPDATE
 40
2452761.346493229
  9
$TDINDWG
 40
0.0283656250
  9
$TDUSRTIMER
 40
0.0283652662
  9
$USRTIMER
 70
     1
  9
$ANGBASE
 50
0.0
  9
$ANGDIR
 70
     0
  9
$PDMODE
 70
     0
  9
$PDSIZE
 40
0.0
  9
$PLINEWID
 40
0.0
  9
$COORDS
 70
     2
  9
$SPLFRAME
 70
     0
  9
$SPLINETYPE
 70
     6
  9
$SPLINESEGS
 70
     8
  9
$ATTDIA
 70
     0
  9
$ATTREQ
 70
     1
  9
$HANDLING
 70
 12289
  9
$HANDSEED
  5
130F
  9
$SURFTAB1
 70
     6
  9
$SURFTAB2
 70
     6
  9
$SURFTYPE
 70
     6
  9
$SURFU
 70
     6
  9
$SURFV
 70
     6
  9
$UCSNAME
  2

  9
$UCSORG
 10
0.0
 20
0.0
 30
0.0
  9
$UCSXDIR
 10
1.0
 20
0.0
 30
0.0
  9
$UCSYDIR
 10
0.0
 20
1.0
 30
0.0
  9
$PUCSNAME
  2

  9
$PUCSORG
 10
0.0
 20
0.0
 30
0.0
  9
$PUCSXDIR
 10
1.0
 20
0.0
 30
0.0
  9
$PUCSYDIR
 10
0.0
 20
1.0
 30
0.0
  9
$USERI1
 70
     0
  9
$USERI2
 70
     0
  9
$USERI3
 70
     0
  9
$USERI4
 70
     0
  9
$USERI5
 70
     0
  9
$USERR1
 40
0.0
  9
$USERR2
 40
0.0
  9
$USERR3
 40
0.0
  9
$USERR4
 40
0.0
  9
$USERR5
 40
0.0
  9
$WORLDVIEW
 70
     1
  9
$SHADEDGE
 70
     3
  9
$SHADEDIF
 70
    70
  9
$TILEMODE
 70
     1
  9
$MAXACTVP
 70
    64
  9
$PINSBASE
 10
0.0
 20
0.0
 30
0.0
  9
$PLIMCHECK
 70
     0
  9
$PEXTMIN
 10
1.000000000000000E+20
 20
1.000000000000000E+20
 30
1.000000000000000E+20
  9
$PEXTMAX
 10
-1.000000000000000E+20
 20
-1.000000000000000E+20
 30
-1.000000000000000E+20
  9
$PLIMMIN
 10
0.0
 20
0.0
  9
$PLIMMAX
 10
12.0
 20
9.0
  9
$UNITMODE
 70
     0
  9
$VISRETAIN
 70
     1
  9
$PLINEGEN
 70
     0
  9
$PSLTSCALE
 70
     1
  9
$TREEDEPTH
 70
  3020
  9
$PICKSTYLE
 70
     1
  9
$CMLSTYLE
  2
STANDARD
  9
$CMLJUST
 70
     0
  9
$CMLSCALE
 40
1.0
  9
$PROXYGRAPHICS
 70
     1
  9
$MEASUREMENT
 70
     0
  0
ENDSEC
  0
SECTION
  2
CLASSES
  0
CLASS
  1
ACDBDICTIONARYWDFLT
  2
AcDbDictionaryWithDefault
  3
AutoCAD 2000
 90
        0
280
     0
281
     0
  0
CLASS
  1
ACDBPLACEHOLDER
  2
AcDbPlaceHolder
  3
AutoCAD 2000
 90
        0
280
     0
281
     0
  0
CLASS
  1
LAYOUT
  2
AcDbLayout
  3
AutoCAD 2000
 90
        0
280
     0
281
     0
  0
CLASS
  1
LONG_TRANSACTION
  2
AcDbLongTransaction
  3
AutoCAD 2000
 90
        0
280
     0
281
     0
  0
CLASS
  1
LWPOLYLINE
  2
AcDbPolyline
  3
AutoCAD 2000
 90
        0
280
     0
281
     1
  0
CLASS
  1
HATCH
  2
AcDbHatch
  3
AutoCAD 2000
 90
        0
280
     0
281
     1
  0
CLASS
  1
XRECORD
  2
AcDbXrecord
  3
AutoCAD 2000
 90
        0
280
     0
281
     0
  0
CLASS
  1
LONG_TRANSACTION
  2
AcDbLongTransaction
  3
AutoCAD 2000
 90
        0
280
     0
281
     0
  0
CLASS
  1
LWPOLYLINE
  2
AcDbPolyline
  3
AutoCAD 2000
 90
        0
280
     0
281
     1
  0
CLASS
  1
HATCH
  2
AcDbHatch
  3
AutoCAD 2000
 90
        0
280
     0
281
     1
  0
CLASS
  1
XRECORD
  2
AcDbXrecord
  3
AutoCAD 2000
 90
        0
280
     0
281
     0
  0
CLASS
  1
LONG_TRANSACTION
  2
AcDbLongTransaction
  3
AutoCAD 2000
 90
        0
280
     0
281
     0
  0
CLASS
  1
LWPOLYLINE
  2
AcDbPolyline
  3
AutoCAD 2000
 90
        0
280
     0
281
     1
  0
CLASS
  1
HATCH
  2
AcDbHatch
  3
AutoCAD 2000
 90
        0
280
     0
281
     1
  0
CLASS
  1
XRECORD
  2
AcDbXrecord
  3
AutoCAD 2000
 90
        0
280
     0
281
     0
  0
ENDSEC
  0
SECTION
  2
TABLES
  0
TABLE
  2
VPORT
  5
8
330
0
100
AcDbSymbolTable
 70
     2
  0
VPORT
  5
12EC
330
8
100
AcDbSymbolTableRecord
100
AcDbViewportTableRecord
  2
*ACTIVE
 70
     0
 10
0.0
 20
0.0
 11
1.0
 21
1.0
 12
285.1718152805368
 22
214.3334970301173
 13
0.0
 23
0.0
 14
1.0
 24
1.0
 15
5.0
 25
5.0
 16
0.0
 26
0.0
 36
1.0
 17
0.0
 27
0.0
 37
0.0
 40
301.5516952247862
 41
1.481743227326266
 42
50.0
 43
0.0
 44
0.0
 50
0.0
 51
0.0
 71
     0
 72
  2000
 73
     1
 74
     3
 75
     1
 76
     0
 77
     0
 78
     0
  0
ENDTAB
  0
TABLE
  2
LTYPE
  5
5
330
0
100
AcDbSymbolTable
 70
     4
  0
LTYPE
  5
14
330
5
100
AcDbSymbolTableRecord
100
AcDbLinetypeTableRecord
  2
BYBLOCK
 70
     0
  3

 72
    65
 73
     0
 40
0.0
  0
LTYPE
  5
15
330
5
100
AcDbSymbolTableRecord
100
AcDbLinetypeTableRecord
  2
BYLAYER
 70
     0
  3

 72
    65
 73
     0
 40
0.0
  0
LTYPE
  5
16
330
5
100
AcDbSymbolTableRecord
100
AcDbLinetypeTableRecord
  2
CONTINUOUS
 70
     0
  3
Solid line
 72
    65
 73
     0
 40
0.0
  0
LTYPE
  5
45E
330
5
100
AcDbSymbolTableRecord
100
AcDbLinetypeTableRecord
  2
CENTER2
 70
     0
  3
Center (.5x) ___ _ ___ _ ___ _ ___ _ ___ _ ___
 72
    65
 73
     4
 40
1.125
 49
0.75
 74
     0
 49
-0.125
 74
     0
 49
0.125
 74
     0
 49
-0.125
 74
     0
  0
LTYPE
  5
45F
330
5
100
AcDbSymbolTableRecord
100
AcDbLinetypeTableRecord
  2
HIDDEN
 70
     0
  3
Hidden __ __ __ __ __ __ __ __ __ __ __ __ __ _
 72
    65
 73
     2
 40
0.375
 49
0.25
 74
     0
 49
-0.125
 74
     0
  0
ENDTAB
  0
TABLE
  2
LAYER
  5
2
330
0
100
AcDbSymbolTable
 70
    10
  0
LAYER
  5
10
330
2
100
AcDbSymbolTableRecord
100
AcDbLayerTableRecord
  2
0
 70
     0
 62
     7
  6
CONTINUOUS
  0
LAYER
  5
FC7
330
2
100
AcDbSymbolTableRecord
100
AcDbLayerTableRecord
  2
PEF-150A
 70
     0
 62
     7
  6
CONTINUOUS
  0
ENDTAB
  0
TABLE
  2
STYLE
  5
3
330
0
100
AcDbSymbolTable
 70
     1
  0
STYLE
  5
11
330
3
100
AcDbSymbolTableRecord
100
AcDbTextStyleTableRecord
  2
STANDARD
 70
     0
 40
0.0
 41
1.0
 50
0.0
 71
     0
 42
4.0
  3
txt.shx
  4
whgtxt.shx
  0
ENDTAB
  0
TABLE
  2
VIEW
  5
6
330
0
100
AcDbSymbolTable
 70
     0
  0
ENDTAB
  0
TABLE
  2
UCS
  5
7
330
0
100
AcDbSymbolTable
 70
     0
  0
ENDTAB
  0
TABLE
  2
APPID
  5
9
330
0
100
AcDbSymbolTable
 70
     4
  0
APPID
  5
12
330
9
100
AcDbSymbolTableRecord
100
AcDbRegAppTableRecord
  2
ACAD
 70
     0
  0
APPID
  5
ECD
330
9
100
AcDbSymbolTableRecord
100
AcDbRegAppTableRecord
  2
MCAD_NO_VIS
 70
     0
  0
APPID
  5
ECE
330
9
100
AcDbSymbolTableRecord
100
AcDbRegAppTableRecord
  2
ACAD_TEMP_GRAPHIC
 70
     0
  0
APPID
  5
FC9
330
9
100
AcDbSymbolTableRecord
100
AcDbRegAppTableRecord
  2
DCO15
 70
     0
  0
ENDTAB
  0
TABLE
  2
DIMSTYLE
  5
A
330
0
100
AcDbSymbolTable
 70
     1
  0
DIMSTYLE
105
27
330
A
100
AcDbSymbolTableRecord
100
AcDbDimStyleTableRecord
  2
STANDARD
 70
     0
  3

  4

  5

  6

  7

 40
1.3
 41
2.299999999999998
 42
0.5
 43
8.0
 44
1.0
 45
0.0
 46
0.0
 47
0.0
 48
0.000000001
140
2.299999999999998
141
0.09
142
0.0
143
25.4
144
1.0
145
0.0
146
0.7
147
0.5
 71
     0
 72
     0
 73
     0
 74
     0
 75
     0
 76
     0
 77
     1
 78
     8
170
     0
171
     1
172
     1
173
     0
174
     0
175
     0
176
     5
177
     5
178
     3
270
     2
271
     1
272
     1
273
     2
274
     1
340
11
275
     0
280
     0
281
     0
282
     0
283
     1
284
     0
285
     0
286
     0
287
     3
288
     1
  0
ENDTAB
  0
TABLE
  2
BLOCK_RECORD
  5
1
330
0
100
AcDbSymbolTable
 70
     0
  0
BLOCK_RECORD
  5
1F
102
{ACAD_XDICTIONARY
360
12B7
102
}
330
1
100
AcDbSymbolTableRecord
100
AcDbBlockTableRecord
  2
*MODEL_SPACE
  0
BLOCK_RECORD
  5
1B
102
{ACAD_XDICTIONARY
360
12B5
102
}
330
1
100
AcDbSymbolTableRecord
100
AcDbBlockTableRecord
  2
*PAPER_SPACE
  0
ENDTAB
  0
ENDSEC
  0
SECTION
  2
BLOCKS
  0
BLOCK
  5
20
330
1F
100
AcDbEntity
  8
0
100
AcDbBlockBegin
  2
*MODEL_SPACE
 70
     0
 10
0.0
 20
0.0
 30
0.0
  3
*MODEL_SPACE
  1

  0
ENDBLK
  5
21
330
1F
100
AcDbEntity
  8
0
100
AcDbBlockEnd
  0
BLOCK
  5
1C
330
1B
100
AcDbEntity
 67
     1
  8
0
100
AcDbBlockBegin
  2
*PAPER_SPACE
 70
     0
 10
0.0
 20
0.0
 30
0.0
  3
*PAPER_SPACE
  1

  0
ENDBLK
  5
1D
330
1B
100
AcDbEntity
 67
     1
  8
0
100
AcDbBlockEnd
  0
ENDSEC
  0
SECTION
  2
ENTITIES
  0
LINE
  5
99E
330
1F
100
AcDbEntity
  8
PEF-150A
  6
CONTINUOUS
100
AcDbLine
 10
229.3057081872743
 20
234.538541771679
 30
0.0
 11
229.3057081872744
 21
227.132155214109
 31
0.0
  0
LINE
  5
99F
330
1F
100
AcDbEntity
  8
PEF-150A
  6
CONTINUOUS
100
AcDbLine
 10
189.3057081872743
 20
227.132155214109
 30
0.0
 11
189.3057081872743
 21
234.538541771679
 31
0.0
  0
LINE
  5
9A0
330
1F
100
AcDbEntity
  8
PEF-150A
  6
CENTER2
100
AcDbLine
 10
209.3057081872744
 20
243.4548809035661
 30
0.0
 11
209.3057081872744
 21
223.5624511974999
 31
0.0
  0
LINE
  5
9A1
330
1F
100
AcDbEntity
  8
PEF-150A
  6
CENTER2
100
AcDbLine
 10
197.3057081872744
 20
223.5624511974999
 30
0.0
 11
197.3057081872744
 21
241.9856653391643
 31
0.0
  0
LINE
  5
9A2
330
1F
100
AcDbEntity
  8
PEF-150A
  6
CENTER2
100
AcDbLine
 10
221.3057081872744
 20
241.9856653391643
 30
0.0
 11
221.3057081872743
 21
223.5624511974999
 31
0.0
  0
ARC
  5
9A3
330
1F
100
AcDbEntity
  8
PEF-150A
  6
CONTINUOUS
100
AcDbCircle
 10
157.3057081872744
 20
214.3321552141089
 30
0.0
 40
75.00000000000004
100
AcDbArc
 50
156.4218215218001
 51
178.8652468546785
  0
ARC
  5
9A4
330
1F
100
AcDbEntity
  8
PEF-150A
  6
CONTINUOUS
100
AcDbCircle
 10
189.3057081872743
 20
231.632155214109
 30
0.0
 40
4.499999999999995
100
AcDbArc
 50
116.3877999612433
 51
270.0
  0
LINE
  5
9A5
330
1F
100
AcDbEntity
  8
PEF-150A
  6
HIDDEN
100
AcDbLine
 10
97.84071278892591
 20
228.0916727301556
 30
0.0
 11
99.55535560887412
 21
229.8063155501039
 31
0.0
  0
LINE
  5
9A6
330
1F
100
AcDbEntity
  8
PEF-150A
  6
HIDDEN
100
AcDbLine
 10
97.84071278892591
 20
228.0916727301556
 30
0.0
 11
98.92775277835665
 21
232.1485612005698
 31
0.0
  0
LINE
  5
9A7
330
1F
100
AcDbEntity
  8
PEF-150A
  6
HIDDEN
100
AcDbLine
 10
84.31775122087904
 20
231.7151393615909
 30
0.0
 11
97.84071278892591
 21
228.0916727301556
 31
0.0
  0
CIRCLE
  5
9A8
330
1F
100
AcDbEntity
  8
PEF-150A
  6
CONTINUOUS
100
AcDbCircle
 10
157.3057081872744
 20
214.3321552141089
 30
0.0
 40
77.49999999999997
  0
CIRCLE
  5
9A9
330
1F
100
AcDbEntity
  8
PEF-150A
  6
CONTINUOUS
100
AcDbCircle
 10
157.3057081872744
 20
214.3321552141089
 30
0.0
 40
79.09999999999995
  0
ARC
  5
9AA
330
1F
100
AcDbEntity
  8
PEF-150A
  6
CONTINUOUS
100
AcDbCircle
 10
157.3057081872744
 20
214.3321552141089
 30
0.0
 40
80.00000000000001
100
AcDbArc
 50
92.9236183763585
 51
177.0763816236415
  0
ARC
  5
9AB
330
1F
100
AcDbEntity
  8
PEF-150A
  6
CONTINUOUS
100
AcDbCircle
 10
157.3057081872744
 20
214.3321552141089
 30
0.0
 40
79.99999999999997
100
AcDbArc
 50
2.92361837635849
 51
87.07638162364151
  0
LINE
  5
9AC
330
1F
100
AcDbEntity
  8
PEF-150A
  6
CENTER2
100
AcDbLine
 10
157.3057081872744
 20
127.2914925635065
 30
0.0
 11
157.3057081872741
 21
304.1710106357956
 31
0.0
  0
LINE
  5
9B0
330
1F
100
AcDbEntity
  8
PEF-150A
  6
CONTINUOUS
100
AcDbLine
 10
125.3057081872744
 20
201.08043460582
 30
0.0
 11
85.30570818727431
 21
201.08043460582
 31
0.0
  0
LINE
  5
9B1
330
1F
100
AcDbEntity
  8
PEF-150A
  6
CONTINUOUS
100
AcDbLine
 10
125.3057081872744
 20
199.9213236142731
 30
0.0
 11
85.30570818727444
 21
199.9213236142731
 31
0.0
  0
LINE
  5
9B2
330
1F
100
AcDbEntity
  8
PEF-150A
  6
CONTINUOUS
100
AcDbLine
 10
125.3057081872744
 20
198.4724348748395
 30
0.0
 11
85.30570818727444
 21
198.4724348748395
 31
0.0
  0
LINE
  5
9B3
330
1F
100
AcDbEntity
  8
PEF-150A
  6
CONTINUOUS
100
AcDbLine
 10
123.8057081872742
 20
192.6768799171051
 30
0.0
 11
86.8057081872743
 21
192.6768799171051
 31
0.0
  0
LINE
  5
9B4
330
1F
100
AcDbEntity
  8
PEF-150A
  6
CONTINUOUS
100
AcDbLine
 10
99.67650552057115
 20
151.7532050790993
 30
0.0
 11
85.53436989684005
 21
137.6110694553684
 31
0.0
  0
LINE
  5
9B5
330
1F
100
AcDbEntity
  8
PEF-150A
  6
CONTINUOUS
100
AcDbLine
 10
106.2896094572298
 20
152.7094510348348
 30
0.0
 11
88.36279702158631
 21
134.7826423306221
 31
0.0
  0
LINE
  5
9B6
330
1F
100
AcDbEntity
  8
PEF-150A
  6
HIDDEN
100
AcDbLine
 10
106.0404665512497
 20
173.6735152958823
 30
0.0
 11
95.68300683753992
 21
163.3160530662434
 31
0.0
  0
ARC
  5
9B7
330
1F
100
AcDbEntity
  8
PEF-150A
  6
CONTINUOUS
100
AcDbCircle
 10
97.20163178641815
 20
154.228078813252
 30
0.0
 40
3.499999999999993
100
AcDbArc
 50
315.0
 51
135.000000000001
  0
LINE
  5
9B8
330
1F
100
AcDbEntity
  8
PEF-150A
  6
CONTINUOUS
100
AcDbLine
 10
83.40604648304205
 20
201.5321552141088
 30
0.0
 11
125.3057081872744
 21
201.5321552141088
 31
0.0
  0
LINE
  5
9B9
330
1F
100
AcDbEntity
  8
PEF-150A
  6
CONTINUOUS
100
AcDbLine
 10
111.3437674101487
 20
180.3702144369833
 30
0.0
 11
87.6434043303748
 21
180.3702144369833
 31
0.0
  0
LINE
  5
9BA
330
1F
100
AcDbEntity
  8
PEF-150A
  6
CONTINUOUS
100
AcDbLine
 10
111.3437674101487
 20
183.3702144369834
 30
0.0
 11
87.58156612426821
 21
183.3702144369833
 31
0.0
  0
LINE
  5
9BB
330
1F
100
AcDbEntity
  8
PEF-150A
  6
CENTER2
100
AcDbLine
 10
125.7980262975715
 20
182.824473324406
 30
0.0
 11
74.49573739379721
 21
131.5221844206315
 31
0.0
  0
LINE
  5
9BC
330
1F
100
AcDbEntity
  8
PEF-150A
  6
CENTER2
100
AcDbLine
 10
245.3654862229043
 20
214.332155214109
 30
0.0
 11
65.40582328288812
 21
214.3321552141089
 31
0.0
  0
ARC
  5
9BD
330
1F
100
AcDbEntity
  8
PEF-150A
  6
CONTINUOUS
100
AcDbCircle
 10
157.3057081872744
 20
214.3321552141089
 30
0.0
 40
80.00000000000003
100
AcDbArc
 50
182.9236183763584
 51
267.0763816236415
  0
LINE
  5
9BE
330
1F
100
AcDbEntity
  8
PEF-150A
  6
CONTINUOUS
100
AcDbLine
 10
95.68300670854455
 20
163.3160532220579
 30
0.0
 11
77.75619530378804
 21
145.3892440484201
 31
0.0
  0
ARC
  5
9BF
330
1F
100
AcDbEntity
  8
PEF-150A
  6
CONTINUOUS
100
AcDbCircle
 10
83.05949616268714
 20
140.0859431895213
 30
0.0
 40
7.499999999999982
100
AcDbArc
 50
135.0
 51
315.0000000000011
  0
LINE
  5
9C0
330
1F
100
AcDbEntity
  8
PEF-150A
  6
CENTER2
100
AcDbLine
 10
81.98487993601544
 20
155.3026950399238
 30
0.0
 11
97.54122912211963
 21
139.7463458538199
 31
0.0
  0
ARC
  5
9C1
330
1F
100
AcDbEntity
  8
PEF-150A
  6
CONTINUOUS
100
AcDbCircle
 10
83.05949616268714
 20
140.0859431895213
 30
0.0
 40
3.499999999999998
100
AcDbArc
 50
135.0
 51
315.0000000000011
  0
LINE
  5
9C2
330
1F
100
AcDbEntity
  8
PEF-150A
  6
CONTINUOUS
100
AcDbLine
 10
94.72675805226524
 20
156.702952547405
 30
0.0
 11
80.58462242853435
 21
142.5608169236739
 31
0.0
  0
ARC
  5
9C4
330
1F
100
AcDbEntity
  8
PEF-150A
  6
CONTINUOUS
100
AcDbCircle
 10
86.71950960879911
 20
194.1257686565385
 30
0.0
 40
1.413801421524679
100
AcDbArc
 50
180.0
 51
225.7022256884029
  0
LINE
  5
9C5
330
1F
100
AcDbEntity
  8
PEF-150A
  6
CENTER2
100
AcDbLine
 10
93.3057081872743
 20
186.6786450890536
 30
0.0
 11
93.3057081872743
 21
205.1018592307179
 31
0.0
  0
ARC
  5
9C6
330
1F
100
AcDbEntity
  8
PEF-150A
  6
CONTINUOUS
100
AcDbCircle
 10
87.58156612426821
 20
185.3702144369833
 30
0.0
 40
1.999999999999991
100
AcDbArc
 50
202.5569696980594
 51
270.0
  0
ARC
  5
9C7
330
1F
100
AcDbEntity
  8
PEF-150A
  6
CONTINUOUS
100
AcDbCircle
 10
86.8057081872743
 20
194.214106486595
 30
0.0
 40
1.537226569489813
100
AcDbArc
 50
225.7022256883995
 51
270.0
  0
ARC
  5
9C8
330
1F
100
AcDbEntity
  8
PEF-150A
  6
CONTINUOUS
100
AcDbCircle
 10
93.30570818727442
 20
199.1835485801921
 30
0.0
 40
11.43010302145403
100
AcDbArc
 50
249.6035987915818
 51
290.3964012084181
  0
ARC
  5
9C9
330
1F
100
AcDbEntity
  8
PEF-150A
  6
CONTINUOUS
100
AcDbCircle
 10
93.30570818727442
 20
197.6307846229286
 30
0.0
 40
10.03263042854777
100
AcDbArc
 50
249.6035987915818
 51
290.3964012084181
  0
ARC
  5
9CA
330
1F
100
AcDbEntity
  8
PEF-150A
  6
CONTINUOUS
100
AcDbCircle
 10
93.30570818727442
 20
205.5463626837096
 30
0.0
 40
13.44718002523988
100
AcDbArc
 50
253.1445885536431
 51
286.8554114463598
  0
LINE
  5
9CB
330
1F
100
AcDbEntity
  8
PEF-150A
  6
CONTINUOUS
100
AcDbLine
 10
89.05570818727454
 20
192.6768799171051
 30
0.0
 11
89.05570818727444
 21
188.8534265004238
 31
0.0
  0
LINE
  5
9CC
330
1F
100
AcDbEntity
  8
PEF-150A
  6
CONTINUOUS
100
AcDbLine
 10
89.28235505607306
 20
188.4873273228127
 30
0.0
 11
89.77426013530843
 21
188.2423097635293
 31
0.0
  0
ARC
  5
9CD
330
1F
100
AcDbEntity
  8
PEF-150A
  6
CONTINUOUS
100
AcDbCircle
 10
89.46470878800303
 20
188.8534265004235
 30
0.0
 40
0.4090006007286038
100
AcDbArc
 50
180.0
 51
249.6035987915782
  0
ARC
  5
9CE
330
1F
100
AcDbEntity
  8
PEF-150A
  6
CONTINUOUS
100
AcDbCircle
 10
89.93431885011503
 20
188.5636487525371
 30
0.0
 40
0.3589951782990853
100
AcDbArc
 50
243.5221382392521
 51
249.6035987915782
  0
LINE
  5
9CF
330
1F
100
AcDbEntity
  8
PEF-150A
  6
CONTINUOUS
100
AcDbLine
 10
97.55570818727431
 20
188.8534265004238
 30
0.0
 11
97.55570818727431
 21
192.6768799171051
 31
0.0
  0
LINE
  5
9D0
330
1F
100
AcDbEntity
  8
PEF-150A
  6
CONTINUOUS
100
AcDbLine
 10
97.32906131847592
 20
188.4873273228127
 30
0.0
 11
96.83715623924042
 21
188.2423097635293
 31
0.0
  0
ARC
  5
9D1
330
1F
100
AcDbEntity
  8
PEF-150A
  6
CONTINUOUS
100
AcDbCircle
 10
97.14670758654584
 20
188.8534265004238
 30
0.0
 40
0.4090006007285877
100
AcDbArc
 50
290.3964012084216
 51
0.0
  0
ARC
  5
9D2
330
1F
100
AcDbEntity
  8
PEF-150A
  6
CONTINUOUS
100
AcDbCircle
 10
96.67709752443386
 20
188.5636487525371
 30
0.0
 40
0.3589951782990957
100
AcDbArc
 50
290.3964012084216
 51
296.4778617607476
  0
LINE
  5
9D3
330
1F
100
AcDbEntity
  8
PEF-150A
  6
CONTINUOUS
100
AcDbLine
 10
78.20570818727429
 20
210.1821552141088
 30
0.0
 11
76.50570818727429
 21
210.3308859421029
 31
0.0
  0
LINE
  5
9D4
330
1F
100
AcDbEntity
  8
PEF-150A
  6
CONTINUOUS
100
AcDbLine
 10
78.20570818727441
 20
218.4821552141093
 30
0.0
 11
76.50570818727442
 21
218.3334244861151
 31
0.0
  0
ARC
  5
9D5
330
1F
100
AcDbEntity
  8
PEF-150A
  6
CONTINUOUS
100
AcDbCircle
 10
86.11205555421241
 20
214.3321552141089
 30
0.0
 40
10.40634736693798
100
AcDbArc
 50
157.3871256045215
 51
202.612874395478
  0
ARC
  5
9D6
330
1F
100
AcDbEntity
  8
PEF-150A
  6
CONTINUOUS
100
AcDbCircle
 10
157.3057081872744
 20
214.3321552141089
 30
0.0
 40
75.00000000000007
100
AcDbArc
 50
181.1347531453215
 51
189.8265827165705
  0
LINE
  5
9D7
330
1F
100
AcDbEntity
  8
PEF-150A
  6
CONTINUOUS
100
AcDbLine
 10
78.20570818727441
 20
218.4821552141093
 30
0.0
 11
78.20570818727429
 21
210.1821552141088
 31
0.0
  0
LINE
  5
9D8
330
1F
100
AcDbEntity
  8
PEF-150A
  6
CONTINUOUS
100
AcDbLine
 10
85.30570818727431
 20
199.3321552141089
 30
0.0
 11
81.27117655854673
 21
199.3321552141088
 31
0.0
  0
LINE
  5
9D9
330
1F
100
AcDbEntity
  8
PEF-150A
  6
CONTINUOUS
100
AcDbLine
 10
85.30570818727431
 20
194.1257686565385
 30
0.0
 11
85.30570818727431
 21
201.5321552141088
 31
0.0
  0
LINE
  5
9DA
330
1F
100
AcDbEntity
  8
PEF-150A
  6
CONTINUOUS
100
AcDbLine
 10
82.81817298381591
 20
205.579597186366
 30
0.0
 11
80.30153483936354
 21
205.579596330851
 31
0.0
  0
LINE
  5
9DB
330
1F
100
AcDbEntity
  8
PEF-150A
  6
CONTINUOUS
100
AcDbLine
 10
83.22393088786865
 20
202.6321560852919
 30
0.0
 11
80.69395974096892
 21
202.6321552141088
 31
0.0
  0
LINE
  5
9DC
330
1F
100
AcDbEntity
  8
PEF-150A
  6
CONTINUOUS
100
AcDbLine
 10
83.80570818727433
 20
214.3321552141089
 30
0.0
 11
82.32041689768172
 21
215.8174465037016
 31
0.0
  0
LINE
  5
9DD
330
1F
100
AcDbEntity
  8
PEF-150A
  6
CONTINUOUS
100
AcDbLine
 10
83.80570818727433
 20
214.3321552141089
 30
0.0
 11
82.32041689768172
 21
212.8468639245161
 31
0.0
  0
LINE
  5
9DE
330
1F
100
AcDbEntity
  8
PEF-150A
  6
CONTINUOUS
100
AcDbLine
 10
83.1926198527123
 20
225.8321552091036
 30
0.0
 11
80.66368316183542
 21
225.8321552141087
 31
0.0
  0
LINE
  5
9E0
330
1F
100
AcDbEntity
  8
PEF-150A
  6
CENTER2
100
AcDbLine
 10
186.4284338767314
 20
162.332155214109
 30
0.0
 11
166.5360041706653
 21
162.332155214109
 31
0.0
  0
LINE
  5
9E1
330
1F
100
AcDbEntity
  8
PEF-150A
  6
CENTER2
100
AcDbLine
 10
166.5360041706653
 20
174.332155214109
 30
0.0
 11
184.9592183123295
 21
174.332155214109
 31
0.0
  0
LINE
  5
9E2
330
1F
100
AcDbEntity
  8
PEF-150A
  6
CENTER2
100
AcDbLine
 10
184.9592183123293
 20
150.332155214109
 30
0.0
 11
166.5360041706652
 21
150.332155214109
 31
0.0
  0
LINE
  5
9E3
330
1F
100
AcDbEntity
  8
PEF-150A
  6
CONTINUOUS
100
AcDbLine
 10
178.6368370614236
 20
184.332155214109
 30
0.0
 11
226.044343611612
 21
184.332155214109
 31
0.0
  0
ARC
  5
9E4
330
1F
100
AcDbEntity
  8
PEF-150A
  6
CONTINUOUS
100
AcDbCircle
 10
157.3057081872744
 20
214.3321552141089
 30
0.0
 40
80.0
100
AcDbArc
 50
272.9236183763585
 51
357.0763816236431
  0
LINE
  5
9E6
330
1F
100
AcDbEntity
  8
PEF-150A
  6
CONTINUOUS
100
AcDbLine
 10
170.557428795563
 20
182.332155214109
 30
0.0
 11
170.5574287955634
 21
142.3321552141088
 31
0.0
  0
LINE
  5
9E7
330
1F
100
AcDbEntity
  8
PEF-150A
  6
CONTINUOUS
100
AcDbLine
 10
171.7165397871102
 20
182.332155214109
 30
0.0
 11
171.7165397871102
 21
142.3321552141088
 31
0.0
  0
LINE
  5
9E8
330
1F
100
AcDbEntity
  8
PEF-150A
  6
CONTINUOUS
100
AcDbLine
 10
173.1654285265438
 20
182.332155214109
 30
0.0
 11
173.1654285265438
 21
142.3321552141088
 31
0.0
  0
LINE
  5
9E9
330
1F
100
AcDbEntity
  8
PEF-150A
  6
CONTINUOUS
100
AcDbLine
 10
178.9609834842782
 20
180.8321552141089
 30
0.0
 11
178.9609834842783
 21
143.832155214109
 31
0.0
  0
LINE
  5
9EA
330
1F
100
AcDbEntity
  8
PEF-150A
  6
HIDDEN
100
AcDbLine
 10
116.6470682690482
 20
163.0669135780839
 30
0.0
 11
106.2896082963546
 21
152.7094521957095
 31
0.0
  0
LINE
  5
9EB
330
1F
100
AcDbEntity
  8
PEF-150A
  6
CONTINUOUS
100
AcDbLine
 10
170.1057081872745
 20
140.4324935098765
 30
0.0
 11
170.1057081872743
 21
182.332155214109
 31
0.0
  0
LINE
  5
9EC
330
1F
100
AcDbEntity
  8
PEF-150A
  6
CENTER2
100
AcDbLine
 10
136.1982682439894
 20
135.5581169280603
 30
0.0
 11
142.7917976247904
 21
160.1655035784083
 31
0.0
  0
LINE
  5
9ED
330
1F
100
AcDbEntity
  8
PEF-150A
  6
CONTINUOUS
100
AcDbLine
 10
127.3057081872743
 20
193.0010263399595
 30
0.0
 11
127.3057081872744
 21
145.5935197897713
 31
0.0
  0
LINE
  5
9EE
330
1F
100
AcDbEntity
  8
PEF-150A
  6
CONTINUOUS
100
AcDbLine
 10
123.3437674101489
 20
144.6698513572093
 30
0.0
 11
123.343767410149
 21
168.3702144369833
 31
0.0
  0
LINE
  5
9EF
330
1F
100
AcDbEntity
  8
PEF-150A
  6
CONTINUOUS
100
AcDbLine
 10
126.3437674101489
 20
144.6080131511026
 30
0.0
 11
126.343767410149
 21
168.3702144369833
 31
0.0
  0
ARC
  5
9F0
330
1F
100
AcDbEntity
  8
PEF-150A
  6
CENTER2
100
AcDbCircle
 10
157.3057081872744
 20
214.3321552141089
 30
0.0
 40
65.00000000000001
100
AcDbArc
 50
216.3407289078528
 51
248.7797462125523
  0
ARC
  5
9F1
330
1F
100
AcDbEntity
  8
PEF-150A
  6
CONTINUOUS
100
AcDbCircle
 10
157.3057081872744
 20
214.3321552141089
 30
0.0
 40
75.00000000000004
100
AcDbArc
 50
246.4218215217993
 51
268.8652468546785
  0
LINE
  5
9F2
330
1F
100
AcDbEntity
  8
PEF-150A
  6
HIDDEN
100
AcDbLine
 10
139.4893022008135
 20
155.9541998051911
 30
0.0
 11
141.8315478512795
 21
156.5818026357087
 31
0.0
  0
LINE
  5
9F3
330
1F
100
AcDbEntity
  8
PEF-150A
  6
HIDDEN
100
AcDbLine
 10
143.5461906712275
 20
154.8671598157604
 30
0.0
 11
139.4893022008135
 21
155.9541998051911
 31
0.0
  0
LINE
  5
9F4
330
1F
100
AcDbEntity
  8
PEF-150A
  6
HIDDEN
100
AcDbLine
 10
143.4149229115383
 20
152.8317805451413
 30
0.0
 11
138.5852937800929
 21
154.1258757706539
 31
0.0
  0
LINE
  5
9F5
330
1F
100
AcDbEntity
  8
PEF-150A
  6
HIDDEN
100
AcDbLine
 10
140.3198781534935
 20
141.2809292786514
 30
0.0
 11
143.4149229115383
 21
152.8317805451413
 31
0.0
  0
LINE
  5
9F6
330
1F
100
AcDbEntity
  8
PEF-150A
  6
HIDDEN
100
AcDbLine
 10
139.930336527517
 20
141.3726040833388
 30
0.0
 11
143.5461906712275
 21
154.8671598157604
 31
0.0
  0
ARC
  5
9F7
330
1F
100
AcDbEntity
  8
PEF-150A
  6
CONTINUOUS
100
AcDbCircle
 10
128.343767410149
 20
144.6080131511026
 30
0.0
 40
2.0
100
AcDbArc
 50
180.0
 51
247.4430303019421
  0
LINE
  5
9F8
330
1F
100
AcDbEntity
  8
PEF-150A
  6
HIDDEN
100
AcDbLine
 10
135.4902501627708
 20
142.5750271790419
 30
0.0
 11
138.5852937800929
 21
154.1258757706539
 31
0.0
  0
LINE
  5
9F9
330
1F
100
AcDbEntity
  8
PEF-150A
  6
HIDDEN
100
AcDbLine
 10
135.8734441324976
 20
142.4596402161513
 30
0.0
 11
139.4893022008135
 21
155.9541998051911
 31
0.0
  0
LINE
  5
9FA
330
1F
100
AcDbEntity
  8
PEF-150A
  6
HIDDEN
100
AcDbLine
 10
138.5852937800929
 20
154.1258757706539
 30
0.0
 11
139.1509792050422
 21
154.691561195603
 31
0.0
  0
ARC
  5
9FB
330
1F
100
AcDbEntity
  8
PEF-150A
  6
CONTINUOUS
100
AcDbCircle
 10
157.3057081872744
 20
214.3321552141089
 30
0.0
 40
75.0
100
AcDbArc
 50
271.1347531453215
 51
279.8265827165689
  0
LINE
  5
9FC
330
1F
100
AcDbEntity
  8
PEF-150A
  6
CONTINUOUS
100
AcDbLine
 10
145.8057103678491
 20
140.2190625183974
 30
0.0
 11
145.8057081872745
 21
137.69013018867
 31
0.0
  0
LINE
  5
9FD
330
1F
100
AcDbEntity
  8
PEF-150A
  6
CONTINUOUS
100
AcDbLine
 10
142.3057103678491
 20
140.8474652283584
 30
0.0
 11
142.3057081872744
 21
138.2976235853812
 31
0.0
  0
LINE
  5
9FE
330
1F
100
AcDbEntity
  8
PEF-150A
  6
CONTINUOUS
100
AcDbLine
 10
157.3057081872744
 20
140.832155214109
 30
0.0
 11
158.790999476867
 21
139.3468639245162
 31
0.0
  0
LINE
  5
9FF
330
1F
100
AcDbEntity
  8
PEF-150A
  6
CONTINUOUS
100
AcDbLine
 10
153.1557081872743
 20
135.2321552141087
 30
0.0
 11
161.4557081872747
 21
135.232155214109
 31
0.0
  0
ARC
  5
A00
330
1F
100
AcDbEntity
  8
PEF-150A
  6
CONTINUOUS
100
AcDbCircle
 10
157.3057081872744
 20
143.1385025810469
 30
0.0
 40
10.40634736693792
100
AcDbArc
 50
247.3871256045195
 51
292.6128743954803
  0
LINE
  5
A01
330
1F
100
AcDbEntity
  8
PEF-150A
  6
CONTINUOUS
100
AcDbLine
 10
157.3057081872744
 20
140.832155214109
 30
0.0
 11
155.8204168976818
 21
139.3468639245162
 31
0.0
  0
LINE
  5
A02
330
1F
100
AcDbEntity
  8
PEF-150A
  6
CONTINUOUS
100
AcDbLine
 10
153.1557081872743
 20
135.2321552141087
 30
0.0
 11
153.3044389152683
 21
133.5321552141089
 31
0.0
  0
LINE
  5
A03
330
1F
100
AcDbEntity
  8
PEF-150A
  6
CONTINUOUS
100
AcDbLine
 10
161.4557081872747
 20
135.232155214109
 30
0.0
 11
161.3069774592804
 21
133.5321552141089
 31
0.0
  0
LINE
  5
A04
330
1F
100
AcDbEntity
  8
PEF-150A
  6
HIDDEN
100
AcDbLine
 10
143.4149229115383
 20
152.8317805451413
 30
0.0
 11
143.2078676754563
 21
153.6045212061726
 31
0.0
  0
LINE
  5
A05
330
1F
100
AcDbEntity
  8
PEF-150A
  6
HIDDEN
100
AcDbLine
 10
143.5461906712275
 20
154.8671598157604
 30
0.0
 11
141.8315478512795
 21
156.5818026357087
 31
0.0
  0
LINE
  5
A06
330
1F
100
AcDbEntity
  8
PEF-150A
  6
CONTINUOUS
100
AcDbLine
 10
172.3057081872743
 20
142.3321552141088
 30
0.0
 11
172.3057081872745
 21
138.2976235853813
 31
0.0
  0
LINE
  5
A07
330
1F
100
AcDbEntity
  8
PEF-150A
  6
CONTINUOUS
100
AcDbLine
 10
166.0582738444116
 20
139.8446194641982
 30
0.0
 11
166.058267070532
 21
137.327981866198
 31
0.0
  0
LINE
  5
A08
330
1F
100
AcDbEntity
  8
PEF-150A
  6
CONTINUOUS
100
AcDbLine
 10
169.0057073160915
 20
140.2503735535536
 30
0.0
 11
169.0057081872746
 21
137.7204067678034
 31
0.0
  0
LINE
  5
A09
330
1F
100
AcDbEntity
  8
PEF-150A
  6
CONTINUOUS
100
AcDbLine
 10
177.5120947448447
 20
142.3321552141088
 30
0.0
 11
170.1057081872745
 21
142.3321552141088
 31
0.0
  0
ARC
  5
A0A
330
1F
100
AcDbEntity
  8
PEF-150A
  6
CONTINUOUS
100
AcDbCircle
 10
172.4543148211913
 20
150.332155214109
 30
0.0
 40
11.43010302145403
100
AcDbArc
 50
339.6035987915813
 51
20.39640120841867
  0
ARC
  5
A0B
330
1F
100
AcDbEntity
  8
PEF-150A
  6
CONTINUOUS
100
AcDbCircle
 10
174.0070787784546
 20
150.332155214109
 30
0.0
 40
10.03263042854782
100
AcDbArc
 50
339.6035987915813
 51
20.39640120841867
  0
ARC
  5
A0C
330
1F
100
AcDbEntity
  8
PEF-150A
  6
CONTINUOUS
100
AcDbCircle
 10
166.0915007176734
 20
150.332155214109
 30
0.0
 40
13.44718002523988
100
AcDbArc
 50
343.1445885536417
 51
16.85541144635831
  0
LINE
  5
A0D
330
1F
100
AcDbEntity
  8
PEF-150A
  6
CONTINUOUS
100
AcDbLine
 10
178.9609834842783
 20
146.082155214109
 30
0.0
 11
182.7844369009595
 21
146.082155214109
 31
0.0
  0
ARC
  5
A0E
330
1F
100
AcDbEntity
  8
PEF-150A
  6
CONTINUOUS
100
AcDbCircle
 10
177.5120947448447
 20
143.7459566356338
 30
0.0
 40
1.413801421524793
100
AcDbArc
 50
270.0
 51
315.7022256884006
  0
ARC
  5
A0F
330
1F
100
AcDbEntity
  8
PEF-150A
  6
CONTINUOUS
100
AcDbCircle
 10
177.4237569147883
 20
143.832155214109
 30
0.0
 40
1.537226569489814
100
AcDbArc
 50
315.7022256884006
 51
0.0
  0
LINE
  5
A10
330
1F
100
AcDbEntity
  8
PEF-150A
  6
CONTINUOUS
100
AcDbLine
 10
183.1505360785705
 20
146.3088020829076
 30
0.0
 11
183.395553637854
 21
146.8007071621429
 31
0.0
  0
ARC
  5
A11
330
1F
100
AcDbEntity
  8
PEF-150A
  6
CONTINUOUS
100
AcDbCircle
 10
182.7844369009595
 20
146.4911558148374
 30
0.0
 40
0.4090006007285896
100
AcDbArc
 50
270.0
 51
339.6035987915837
  0
ARC
  5
A12
330
1F
100
AcDbEntity
  8
PEF-150A
  6
CONTINUOUS
100
AcDbCircle
 10
183.0742146488463
 20
146.9607658769495
 30
0.0
 40
0.3589951782990868
100
AcDbArc
 50
333.5221382392632
 51
339.6035987915813
  0
LINE
  5
A13
330
1F
100
AcDbEntity
  8
PEF-150A
  6
CONTINUOUS
100
AcDbLine
 10
182.7844369009595
 20
154.582155214109
 30
0.0
 11
178.9609834842782
 21
154.582155214109
 31
0.0
  0
LINE
  5
A14
330
1F
100
AcDbEntity
  8
PEF-150A
  6
CONTINUOUS
100
AcDbLine
 10
183.1505360785705
 20
154.3555083453103
 30
0.0
 11
183.395553637854
 21
153.8636032660749
 31
0.0
  0
ARC
  5
A15
330
1F
100
AcDbEntity
  8
PEF-150A
  6
CONTINUOUS
100
AcDbCircle
 10
182.7844369009595
 20
154.1731546133804
 30
0.0
 40
0.4090006007285893
100
AcDbArc
 50
20.39640120841867
 51
90.0
  0
ARC
  5
A16
330
1F
100
AcDbEntity
  8
PEF-150A
  6
CONTINUOUS
100
AcDbCircle
 10
183.0742146488463
 20
153.7035445512684
 30
0.0
 40
0.3589951782990891
100
AcDbArc
 50
20.39640120841605
 51
26.47786176073677
  0
ARC
  5
A18
330
1F
100
AcDbEntity
  8
PEF-150A
  6
CONTINUOUS
100
AcDbCircle
 10
123.8919067657495
 20
194.1257686565385
 30
0.0
 40
1.413801421524784
100
AcDbArc
 50
314.2977743116002
 51
0.0
  0
ARC
  5
A19
330
1F
100
AcDbEntity
  8
PEF-150A
  6
CONTINUOUS
100
AcDbCircle
 10
125.3057081872743
 20
197.032155214109
 30
0.0
 40
4.500000000000039
100
AcDbArc
 50
296.3877999612441
 51
90.0
  0
LINE
  5
A1A
330
1F
100
AcDbEntity
  8
PEF-150A
  6
CENTER2
100
AcDbLine
 10
105.3057081872744
 20
185.2094295246519
 30
0.0
 11
105.3057081872743
 21
205.1018592307179
 31
0.0
  0
LINE
  5
A1B
330
1F
100
AcDbEntity
  8
PEF-150A
  6
CENTER2
100
AcDbLine
 10
117.3057081872744
 20
205.1018592307179
 30
0.0
 11
117.3057081872744
 21
186.6786450890536
 31
0.0
  0
ARC
  5
A1C
330
1F
100
AcDbEntity
  8
PEF-150A
  6
CONTINUOUS
100
AcDbCircle
 10
117.3057081872744
 20
199.1835485801922
 30
0.0
 40
11.43010302145403
100
AcDbArc
 50
249.6035987915818
 51
290.3964012084181
  0
ARC
  5
A1D
330
1F
100
AcDbEntity
  8
PEF-150A
  6
CONTINUOUS
100
AcDbCircle
 10
117.3057081872744
 20
197.6307846229287
 30
0.0
 40
10.03263042854776
100
AcDbArc
 50
249.6035987915818
 51
290.3964012084181
  0
ARC
  5
A1E
330
1F
100
AcDbEntity
  8
PEF-150A
  6
CONTINUOUS
100
AcDbCircle
 10
117.3057081872744
 20
205.5463626837096
 30
0.0
 40
13.44718002523988
100
AcDbArc
 50
253.1445885536431
 51
286.8554114463566
  0
ARC
  5
A1F
330
1F
100
AcDbEntity
  8
PEF-150A
  6
CONTINUOUS
100
AcDbCircle
 10
111.3437674101487
 20
168.370214436983
 30
0.0
 40
15.0
100
AcDbArc
 50
0.0
 51
90.0
  0
ARC
  5
A20
330
1F
100
AcDbEntity
  8
PEF-150A
  6
CONTINUOUS
100
AcDbCircle
 10
111.3437674101487
 20
168.370214436983
 30
0.0
 40
12.0
100
AcDbArc
 50
0.0
 51
90.0
  0
CIRCLE
  5
A21
330
1F
100
AcDbEntity
  8
PEF-150A
  6
CONTINUOUS
100
AcDbCircle
 10
111.3437674101489
 20
168.3702144369829
 30
0.0
 40
2.5
  0
CIRCLE
  5
A22
330
1F
100
AcDbEntity
  8
PEF-150A
  6
CONTINUOUS
100
AcDbCircle
 10
111.3437674101489
 20
168.3702144369829
 30
0.0
 40
3.900000000000004
  0
LINE
  5
A23
330
1F
100
AcDbEntity
  8
PEF-150A
  6
CONTINUOUS
100
AcDbLine
 10
106.882349203685
 20
167.1747810314635
 30
0.0
 11
110.1483340046294
 21
163.9087962305193
 31
0.0
  0
LINE
  5
A24
330
1F
100
AcDbEntity
  8
PEF-150A
  6
CONTINUOUS
100
AcDbLine
 10
112.5392008156685
 20
172.831632643447
 30
0.0
 11
108.0777826092041
 21
171.6361992379276
 31
0.0
  0
CIRCLE
  5
A25
330
1F
100
AcDbEntity
  8
PEF-150A
  6
HIDDEN
100
AcDbCircle
 10
111.3437674101489
 20
168.370214436983
 30
0.0
 40
7.5
  0
LINE
  5
A26
330
1F
100
AcDbEntity
  8
PEF-150A
  6
CONTINUOUS
100
AcDbLine
 10
108.0777826092041
 20
171.6361992379276
 30
0.0
 11
106.882349203685
 21
167.1747810314635
 31
0.0
  0
CIRCLE
  5
A27
330
1F
100
AcDbEntity
  8
PEF-150A
  6
CONTINUOUS
100
AcDbCircle
 10
111.3437674101489
 20
168.3702144369829
 30
0.0
 40
2.099999999999992
  0
LINE
  5
A28
330
1F
100
AcDbEntity
  8
PEF-150A
  6
CONTINUOUS
100
AcDbLine
 10
114.6097522110934
 20
165.1042296360388
 30
0.0
 11
115.8051856166128
 21
169.5656478425028
 31
0.0
  0
LINE
  5
A29
330
1F
100
AcDbEntity
  8
PEF-150A
  6
CONTINUOUS
100
AcDbLine
 10
110.1483340046294
 20
163.9087962305193
 30
0.0
 11
114.6097522110933
 21
165.1042296360388
 31
0.0
  0
LINE
  5
A2A
330
1F
100
AcDbEntity
  8
PEF-150A
  6
CONTINUOUS
100
AcDbLine
 10
115.8051856166128
 20
169.5656478425028
 30
0.0
 11
112.5392008156685
 21
172.831632643447
 31
0.0
  0
LINE
  5
A2B
330
1F
100
AcDbEntity
  8
PEF-150A
  6
CONTINUOUS
100
AcDbLine
 10
113.0557081872744
 20
192.6768799171051
 30
0.0
 11
113.0557081872744
 21
188.8534265004238
 31
0.0
  0
LINE
  5
A2C
330
1F
100
AcDbEntity
  8
PEF-150A
  6
CONTINUOUS
100
AcDbLine
 10
113.2823550560729
 20
188.4873273228127
 30
0.0
 11
113.7742601353084
 21
188.2423097635293
 31
0.0
  0
ARC
  5
A2D
330
1F
100
AcDbEntity
  8
PEF-150A
  6
CONTINUOUS
100
AcDbCircle
 10
113.464708788003
 20
188.8534265004238
 30
0.0
 40
0.40900060072849
100
AcDbArc
 50
180.0
 51
249.6035987915782
  0
ARC
  5
A2E
330
1F
100
AcDbEntity
  8
PEF-150A
  6
CONTINUOUS
100
AcDbCircle
 10
113.9343188501149
 20
188.5636487525371
 30
0.0
 40
0.3589951782990821
100
AcDbArc
 50
243.5221382392521
 51
249.6035987915818
  0
LINE
  5
A2F
330
1F
100
AcDbEntity
  8
PEF-150A
  6
CONTINUOUS
100
AcDbLine
 10
121.5557081872744
 20
188.8534265004238
 30
0.0
 11
121.5557081872744
 21
192.6768799171051
 31
0.0
  0
LINE
  5
A30
330
1F
100
AcDbEntity
  8
PEF-150A
  6
CONTINUOUS
100
AcDbLine
 10
121.3290613184757
 20
188.4873273228127
 30
0.0
 11
120.8371562392404
 21
188.2423097635293
 31
0.0
  0
ARC
  5
A31
330
1F
100
AcDbEntity
  8
PEF-150A
  6
CONTINUOUS
100
AcDbCircle
 10
121.1467075865457
 20
188.8534265004238
 30
0.0
 40
0.4090006007285778
100
AcDbArc
 50
290.3964012084149
 51
0.0
  0
ARC
  5
A32
330
1F
100
AcDbEntity
  8
PEF-150A
  6
CONTINUOUS
100
AcDbCircle
 10
120.6770975244338
 20
188.5636487525371
 30
0.0
 40
0.3589951782990957
100
AcDbArc
 50
290.3964012084181
 51
296.4778617607446
  0
ARC
  5
A33
330
1F
100
AcDbEntity
  8
PEF-150A
  6
CONTINUOUS
100
AcDbCircle
 10
123.8057081872744
 20
194.214106486595
 30
0.0
 40
1.537226569489826
100
AcDbArc
 50
270.0
 51
314.2977743116002
  0
LINE
  5
A34
330
1F
100
AcDbEntity
  8
PEF-150A
  6
CONTINUOUS
100
AcDbLine
 10
125.3057081872744
 20
201.5321552141088
 30
0.0
 11
125.3057081872744
 21
194.1257686565385
 31
0.0
  0
LINE
  5
A35
330
1F
100
AcDbEntity
  8
PEF-150A
  6
CONTINUOUS
100
AcDbLine
 10
129.1735241084369
 20
199.3321552141089
 30
0.0
 11
125.3057081872744
 21
199.3321552141089
 31
0.0
  0
ARC
  5
A36
330
1F
100
AcDbEntity
  8
PEF-150A
  6
CONTINUOUS
100
AcDbCircle
 10
172.4543148211911
 20
174.3321552141089
 30
0.0
 40
11.43010302145403
100
AcDbArc
 50
339.6035987915813
 51
20.39640120841867
  0
ARC
  5
A37
330
1F
100
AcDbEntity
  8
PEF-150A
  6
CONTINUOUS
100
AcDbCircle
 10
174.0070787784547
 20
174.332155214109
 30
0.0
 40
10.0326304285478
100
AcDbArc
 50
339.6035987915813
 51
20.39640120841867
  0
ARC
  5
A38
330
1F
100
AcDbEntity
  8
PEF-150A
  6
CONTINUOUS
100
AcDbCircle
 10
166.0915007176734
 20
174.332155214109
 30
0.0
 40
13.44718002523988
100
AcDbArc
 50
343.1445885536417
 51
16.85541144635831
  0
LINE
  5
A39
330
1F
100
AcDbEntity
  8
PEF-150A
  6
CONTINUOUS
100
AcDbLine
 10
178.9609834842783
 20
170.082155214109
 30
0.0
 11
182.7844369009595
 21
170.082155214109
 31
0.0
  0
LINE
  5
A3A
330
1F
100
AcDbEntity
  8
PEF-150A
  6
CONTINUOUS
100
AcDbLine
 10
183.1505360785705
 20
170.3088020829075
 30
0.0
 11
183.3955536378539
 21
170.8007071621429
 31
0.0
  0
ARC
  5
A3B
330
1F
100
AcDbEntity
  8
PEF-150A
  6
CONTINUOUS
100
AcDbCircle
 10
182.7844369009595
 20
170.4911558148374
 30
0.0
 40
0.4090006007285754
100
AcDbArc
 50
270.0
 51
339.6035987915813
  0
ARC
  5
A3C
330
1F
100
AcDbEntity
  8
PEF-150A
  6
CONTINUOUS
100
AcDbCircle
 10
183.0742146488463
 20
170.9607658769495
 30
0.0
 40
0.3589951782990837
100
AcDbArc
 50
333.5221382392632
 51
339.6035987915822
  0
LINE
  5
A3D
330
1F
100
AcDbEntity
  8
PEF-150A
  6
CONTINUOUS
100
AcDbLine
 10
170.1057081872743
 20
182.332155214109
 30
0.0
 11
177.5120947448446
 21
182.332155214109
 31
0.0
  0
ARC
  5
A3E
330
1F
100
AcDbEntity
  8
PEF-150A
  6
CONTINUOUS
100
AcDbCircle
 10
174.6057081872743
 20
182.332155214109
 30
0.0
 40
4.500000000000006
100
AcDbArc
 50
26.38779996123325
 51
180.0
  0
LINE
  5
A3F
330
1F
100
AcDbEntity
  8
PEF-150A
  6
CONTINUOUS
100
AcDbLine
 10
172.3057081872743
 20
186.1999711352716
 30
0.0
 11
172.3057081872743
 21
182.332155214109
 31
0.0
  0
LINE
  5
A40
330
1F
100
AcDbEntity
  8
PEF-150A
  6
CONTINUOUS
100
AcDbLine
 10
182.7844369009594
 20
178.582155214109
 30
0.0
 11
178.9609834842782
 21
178.582155214109
 31
0.0
  0
ARC
  5
A41
330
1F
100
AcDbEntity
  8
PEF-150A
  6
CONTINUOUS
100
AcDbCircle
 10
177.5120947448446
 20
180.918353792584
 30
0.0
 40
1.413801421524784
100
AcDbArc
 50
44.29777431159933
 51
90.0
  0
ARC
  5
A42
330
1F
100
AcDbEntity
  8
PEF-150A
  6
CONTINUOUS
100
AcDbCircle
 10
177.4237569147883
 20
180.8321552141089
 30
0.0
 40
1.537226569489831
100
AcDbArc
 50
0.0
 51
44.29777431159933
  0
LINE
  5
A43
330
1F
100
AcDbEntity
  8
PEF-150A
  6
CONTINUOUS
100
AcDbLine
 10
183.1505360785705
 20
178.3555083453103
 30
0.0
 11
183.3955536378539
 21
177.8636032660749
 31
0.0
  0
ARC
  5
A44
330
1F
100
AcDbEntity
  8
PEF-150A
  6
CONTINUOUS
100
AcDbCircle
 10
182.7844369009595
 20
178.1731546133804
 30
0.0
 40
0.4090006007285881
100
AcDbArc
 50
20.39640120841605
 51
90.0
  0
ARC
  5
A45
330
1F
100
AcDbEntity
  8
PEF-150A
  6
CONTINUOUS
100
AcDbCircle
 10
183.0742146488461
 20
177.7035445512684
 30
0.0
 40
0.3589951782991061
100
AcDbArc
 50
20.39640120841867
 51
26.47786176073677
  0
CIRCLE
  5
A47
330
1F
100
AcDbEntity
  8
PEF-150A
  6
CONTINUOUS
100
AcDbCircle
 10
157.3057081872744
 20
214.3321552141089
 30
0.0
 40
3.999999999999971
  0
CIRCLE
  5
A48
330
1F
100
AcDbEntity
  8
PEF-150A
  6
CONTINUOUS
100
AcDbCircle
 10
157.3057081872744
 20
214.3321552141089
 30
0.0
 40
3.299999999999968
  0
ARC
  5
A4A
330
1F
100
AcDbEntity
  8
PEF-150A
  6
CONTINUOUS
100
AcDbCircle
 10
217.4097845881309
 20
154.2280788132526
 30
0.0
 40
3.499999999999998
100
AcDbArc
 50
45.0
 51
225.0
  0
LINE
  5
A4B
330
1F
100
AcDbEntity
  8
PEF-150A
  6
CONTINUOUS
100
AcDbLine
 10
218.9284139200954
 20
163.3160517428283
 30
0.0
 11
236.8552210707612
 21
145.3892440484208
 31
0.0
  0
LINE
  5
A4C
330
1F
100
AcDbEntity
  8
PEF-150A
  6
HIDDEN
100
AcDbLine
 10
197.9643481055007
 20
163.0669135780843
 30
0.0
 11
208.32180839031
 21
152.7094538424375
 31
0.0
  0
LINE
  5
A4D
330
1F
100
AcDbEntity
  8
PEF-150A
  6
CONTINUOUS
100
AcDbLine
 10
191.2676489644
 20
168.3702144369834
 30
0.0
 11
191.2676489644001
 21
144.6698513572094
 31
0.0
  0
LINE
  5
A4E
330
1F
100
AcDbEntity
  8
PEF-150A
  6
CONTINUOUS
100
AcDbLine
 10
188.2676489644
 20
168.3702144369834
 30
0.0
 11
188.2676489644
 21
144.6080131511026
 31
0.0
  0
LINE
  5
A4F
330
1F
100
AcDbEntity
  8
PEF-150A
  6
CENTER2
100
AcDbLine
 10
188.8133900769774
 20
182.824473324406
 30
0.0
 11
240.1156789807517
 21
131.5221844206317
 31
0.0
  0
LINE
  5
A51
330
1F
100
AcDbEntity
  8
PEF-150A
  6
CENTER2
100
AcDbLine
 10
216.3351683614595
 20
139.0113269628499
 30
0.0
 11
231.8915175475634
 21
154.5676761489541
 31
0.0
  0
LINE
  5
A52
330
1F
100
AcDbEntity
  8
PEF-150A
  6
CONTINUOUS
100
AcDbLine
 10
219.8846583222838
 20
156.7029525474054
 30
0.0
 11
234.0267939460149
 21
142.5608169236745
 31
0.0
  0
LINE
  5
A53
330
1F
100
AcDbEntity
  8
PEF-150A
  6
CONTINUOUS
100
AcDbLine
 10
214.9349108539782
 20
151.7532050790995
 30
0.0
 11
229.0770464777092
 21
137.6110694553688
 31
0.0
  0
ARC
  5
A54
330
1F
100
AcDbEntity
  8
PEF-150A
  6
CONTINUOUS
100
AcDbCircle
 10
231.5519202118621
 20
140.0859431895216
 30
0.0
 40
7.499999999999995
100
AcDbArc
 50
225.0
 51
45.0
  0
ARC
  5
A55
330
1F
100
AcDbEntity
  8
PEF-150A
  6
CONTINUOUS
100
AcDbCircle
 10
186.2676489644
 20
144.6080131511026
 30
0.0
 40
2.0
100
AcDbArc
 50
292.5569696980577
 51
0.0
  0
LINE
  5
A56
330
1F
100
AcDbEntity
  8
PEF-150A
  6
CONTINUOUS
100
AcDbLine
 10
208.32180839031
 20
152.7094538424375
 30
0.0
 11
226.2486193529631
 21
134.7826423306226
 31
0.0
  0
ARC
  5
A57
330
1F
100
AcDbEntity
  8
PEF-150A
  6
CONTINUOUS
100
AcDbCircle
 10
231.5519202118621
 20
140.0859431895216
 30
0.0
 40
3.500000000000006
100
AcDbArc
 50
225.0
 51
45.0
  0
LINE
  5
A58
330
1F
100
AcDbEntity
  8
PEF-150A
  6
CONTINUOUS
100
AcDbLine
 10
189.3057081872743
 20
227.5838758223979
 30
0.0
 11
229.3057081872744
 21
227.5838758223979
 31
0.0
  0
ARC
  5
A59
330
1F
100
AcDbEntity
  8
PEF-150A
  6
CONTINUOUS
100
AcDbCircle
 10
157.3057081872744
 20
214.3321552141089
 30
0.0
 40
74.99999999999997
100
AcDbArc
 50
336.4218215218
 51
358.8652468546785
  0
LINE
  5
A5A
330
1F
100
AcDbEntity
  8
PEF-150A
  6
CONTINUOUS
100
AcDbLine
 10
231.2053698915069
 20
227.132155214109
 30
0.0
 11
189.3057081872744
 21
227.132155214109
 31
0.0
  0
LINE
  5
A5B
330
1F
100
AcDbEntity
  8
PEF-150A
  6
HIDDEN
100
AcDbLine
 10
229.1030975461983
 20
192.5059122656973
 30
0.0
 11
217.5119876307294
 21
195.6117408069276
 31
0.0
  0
LINE
  5
A5C
330
1F
100
AcDbEntity
  8
PEF-150A
  6
HIDDEN
100
AcDbLine
 10
230.3971927717109
 20
197.3355413971424
 30
0.0
 11
218.8060828562421
 21
200.441369938373
 31
0.0
  0
LINE
  5
A5D
330
1F
100
AcDbEntity
  8
PEF-150A
  6
HIDDEN
100
AcDbLine
 10
229.2066251642391
 20
192.8922825962129
 30
0.0
 11
215.6836635961923
 21
196.5157492276482
 31
0.0
  0
LINE
  5
A5E
330
1F
100
AcDbEntity
  8
PEF-150A
  6
HIDDEN
100
AcDbLine
 10
230.2936651536698
 20
196.949171066627
 30
0.0
 11
216.770703585623
 21
200.5726376980623
 31
0.0
  0
LINE
  5
A5F
330
1F
100
AcDbEntity
  8
PEF-150A
  6
CENTER2
100
AcDbLine
 10
236.0797464733229
 20
193.2247152708239
 30
0.0
 11
211.4723598229749
 21
199.8182446516251
 31
0.0
  0
ARC
  5
A60
330
1F
100
AcDbEntity
  8
PEF-150A
  6
CONTINUOUS
100
AcDbCircle
 10
227.0298502502806
 20
185.3702144369835
 30
0.0
 40
2.0
100
AcDbArc
 50
270.0
 51
337.4430303019406
  0
CIRCLE
  5
A61
330
1F
100
AcDbEntity
  8
PEF-150A
  6
CONTINUOUS
100
AcDbCircle
 10
203.2676489644001
 20
168.3702144369835
 30
0.0
 40
3.899999999999998
  0
LINE
  5
A62
330
1F
100
AcDbEntity
  8
PEF-150A
  6
CONTINUOUS
100
AcDbLine
 10
204.4630823699196
 20
163.9087962305196
 30
0.0
 11
207.7290671708639
 21
167.1747810314639
 31
0.0
  0
LINE
  5
A63
330
1F
100
AcDbEntity
  8
PEF-150A
  6
CONTINUOUS
100
AcDbLine
 10
206.5336337653444
 20
171.6361992379279
 30
0.0
 11
202.0722155588805
 21
172.8316326434474
 31
0.0
  0
CIRCLE
  5
A64
330
1F
100
AcDbEntity
  8
PEF-150A
  6
HIDDEN
100
AcDbCircle
 10
203.2676489643999
 20
168.3702144369834
 30
0.0
 40
7.5
  0
ARC
  5
A65
330
1F
100
AcDbEntity
  8
PEF-150A
  6
CENTER2
100
AcDbCircle
 10
157.3057081872744
 20
214.3321552141089
 30
0.0
 40
64.99999999999999
100
AcDbArc
 50
306.3407289078504
 51
323.6592710921485
  0
LINE
  5
A66
330
1F
100
AcDbEntity
  8
PEF-150A
  6
CONTINUOUS
100
AcDbLine
 10
226.968012044174
 20
180.3702144369835
 30
0.0
 11
203.2676489643999
 21
180.3702144369835
 31
0.0
  0
LINE
  5
A67
330
1F
100
AcDbEntity
  8
PEF-150A
  6
CONTINUOUS
100
AcDbLine
 10
227.0298502502806
 20
183.3702144369835
 30
0.0
 11
203.2676489643999
 21
183.3702144369834
 31
0.0
  0
ARC
  5
A68
330
1F
100
AcDbEntity
  8
PEF-150A
  6
CONTINUOUS
100
AcDbCircle
 10
203.2676489643999
 20
168.3702144369834
 30
0.0
 40
14.99999999999999
100
AcDbArc
 50
90.0
 51
180.0
  0
ARC
  5
A69
330
1F
100
AcDbEntity
  8
PEF-150A
  6
CONTINUOUS
100
AcDbCircle
 10
203.2676489643999
 20
168.3702144369834
 30
0.0
 40
12.0
100
AcDbArc
 50
90.0
 51
180.0
  0
CIRCLE
  5
A6A
330
1F
100
AcDbEntity
  8
PEF-150A
  6
CONTINUOUS
100
AcDbCircle
 10
203.2676489644001
 20
168.3702144369835
 30
0.0
 40
2.099999999999992
  0
CIRCLE
  5
A6B
330
1F
100
AcDbEntity
  8
PEF-150A
  6
CONTINUOUS
100
AcDbCircle
 10
203.2676489644001
 20
168.3702144369835
 30
0.0
 40
2.5
  0
LINE
  5
A6C
330
1F
100
AcDbEntity
  8
PEF-150A
  6
CONTINUOUS
100
AcDbLine
 10
198.8062307579361
 20
169.5656478425028
 30
0.0
 11
200.0016641634557
 21
165.104229636039
 31
0.0
  0
LINE
  5
A6D
330
1F
100
AcDbEntity
  8
PEF-150A
  6
CONTINUOUS
100
AcDbLine
 10
200.0016641634557
 20
165.104229636039
 30
0.0
 11
204.4630823699196
 21
163.9087962305196
 31
0.0
  0
LINE
  5
A6E
330
1F
100
AcDbEntity
  8
PEF-150A
  6
CONTINUOUS
100
AcDbLine
 10
202.0722155588805
 20
172.8316326434474
 30
0.0
 11
198.8062307579361
 21
169.5656478425028
 31
0.0
  0
LINE
  5
A6F
330
1F
100
AcDbEntity
  8
PEF-150A
  6
HIDDEN
100
AcDbLine
 10
208.5709498232989
 20
173.6735152958824
 30
0.0
 11
218.9284139200954
 21
163.3160517428283
 31
0.0
  0
LINE
  5
A70
330
1F
100
AcDbEntity
  8
PEF-150A
  6
CONTINUOUS
100
AcDbLine
 10
207.7290671708639
 20
167.1747810314639
 30
0.0
 11
206.5336337653445
 21
171.6361992379279
 31
0.0
  0
LINE
  5
A71
330
1F
100
AcDbEntity
  8
PEF-150A
  6
HIDDEN
100
AcDbLine
 10
215.6836635961923
 20
196.5157492276482
 30
0.0
 11
215.0560607656746
 21
198.857994878114
 31
0.0
  0
LINE
  5
A72
330
1F
100
AcDbEntity
  8
PEF-150A
  6
HIDDEN
100
AcDbLine
 10
216.770703585623
 20
200.5726376980623
 30
0.0
 11
215.0560607656746
 21
198.857994878114
 31
0.0
  0
LINE
  5
A73
330
1F
100
AcDbEntity
  8
PEF-150A
  6
HIDDEN
100
AcDbLine
 10
216.770703585623
 20
200.5726376980623
 30
0.0
 11
215.6836635961923
 21
196.5157492276482
 31
0.0
  0
LINE
  5
A74
330
1F
100
AcDbEntity
  8
PEF-150A
  6
HIDDEN
100
AcDbLine
 10
218.8060828562421
 20
200.441369938373
 30
0.0
 11
218.0333421952106
 21
200.2343147022909
 31
0.0
  0
LINE
  5
A75
330
1F
100
AcDbEntity
  8
PEF-150A
  6
HIDDEN
100
AcDbLine
 10
217.5119876307294
 20
195.6117408069276
 30
0.0
 11
216.9463022057803
 21
196.1774262318768
 31
0.0
  0
LINE
  5
A76
330
1F
100
AcDbEntity
  8
PEF-150A
  6
HIDDEN
100
AcDbLine
 10
218.8060828562421
 20
200.441369938373
 30
0.0
 11
217.5119876307294
 21
195.6117408069276
 31
0.0
  0
LINE
  5
A77
330
1F
100
AcDbEntity
  8
PEF-150A
  6
CONTINUOUS
100
AcDbLine
 10
236.4057081872743
 20
210.1821552141088
 30
0.0
 11
236.4057081872743
 21
218.482155214109
 31
0.0
  0
ARC
  5
A78
330
1F
100
AcDbEntity
  8
PEF-150A
  6
CONTINUOUS
100
AcDbCircle
 10
228.4993608203364
 20
214.3321552141089
 30
0.0
 40
10.40634736693792
100
AcDbArc
 50
337.3871256045219
 51
22.6128743954782
  0
LINE
  5
A79
330
1F
100
AcDbEntity
  8
PEF-150A
  6
CONTINUOUS
100
AcDbLine
 10
230.7904058024194
 20
199.3321549408829
 30
0.0
 11
233.340239816002
 21
199.332155214109
 31
0.0
  0
LINE
  5
A7A
330
1F
100
AcDbEntity
  8
PEF-150A
  6
CONTINUOUS
100
AcDbLine
 10
231.4187932535914
 20
202.8321549408826
 30
0.0
 11
233.9477332127133
 21
202.832155214109
 31
0.0
  0
LINE
  5
A7B
330
1F
100
AcDbEntity
  8
PEF-150A
  6
CONTINUOUS
100
AcDbLine
 10
236.4057081872743
 20
210.1821552141088
 30
0.0
 11
238.1057081872743
 21
210.3308859421029
 31
0.0
  0
ARC
  5
A7C
330
1F
100
AcDbEntity
  8
PEF-150A
  6
CONTINUOUS
100
AcDbCircle
 10
157.3057081872744
 20
214.3321552141089
 30
0.0
 40
74.99999999999997
100
AcDbArc
 50
1.13475314532151
 51
9.826582716570714
  0
LINE
  5
A7D
330
1F
100
AcDbEntity
  8
PEF-150A
  6
CONTINUOUS
100
AcDbLine
 10
230.8057081872743
 20
214.3321552141089
 30
0.0
 11
232.2909994768671
 21
212.8468639245164
 31
0.0
  0
LINE
  5
A7E
330
1F
100
AcDbEntity
  8
PEF-150A
  6
CONTINUOUS
100
AcDbLine
 10
230.8057081872743
 20
214.3321552141089
 30
0.0
 11
232.2909994768671
 21
215.8174465037017
 31
0.0
  0
LINE
  5
A7F
330
1F
100
AcDbEntity
  8
PEF-150A
  6
CONTINUOUS
100
AcDbLine
 10
236.4057081872743
 20
218.482155214109
 30
0.0
 11
238.1057081872743
 21
218.3334244861151
 31
0.0
  0
LINE
  5
A80
330
1F
100
AcDbEntity
  8
PEF-150A
  6
CONTINUOUS
100
AcDbLine
 10
231.7932439371851
 20
223.0847141259109
 30
0.0
 11
234.3098815351853
 21
223.0847140973668
 31
0.0
  0
LINE
  5
A81
330
1F
100
AcDbEntity
  8
PEF-150A
  6
CONTINUOUS
100
AcDbLine
 10
231.3874822184351
 20
226.0321552120839
 30
0.0
 11
233.9174566335799
 21
226.0321552141092
 31
0.0
  0
LINE
  5
A83
330
1F
100
AcDbEntity
  8
PEF-150A
  6
CONTINUOUS
100
AcDbLine
 10
99.67650552057065
 20
276.9111053491184
 30
0.0
 11
85.53436989683973
 21
291.0532409728492
 31
0.0
  0
LINE
  5
A84
330
1F
100
AcDbEntity
  8
PEF-150A
  6
HIDDEN
100
AcDbLine
 10
106.0404665512495
 20
254.9907951323354
 30
0.0
 11
95.68300245445355
 21
265.3482586853898
 31
0.0
  0
LINE
  5
A85
330
1F
100
AcDbEntity
  8
PEF-150A
  6
CONTINUOUS
100
AcDbLine
 10
106.2896079842385
 20
275.9548565857804
 30
0.0
 11
88.36279702158583
 21
293.8816680975953
 31
0.0
  0
ARC
  5
A86
330
1F
100
AcDbEntity
  8
PEF-150A
  6
CONTINUOUS
100
AcDbCircle
 10
97.20163178641763
 20
274.4362316149653
 30
0.0
 40
3.500000000000006
100
AcDbArc
 50
225.0
 51
45.0
  0
LINE
  5
A87
330
1F
100
AcDbEntity
  8
PEF-150A
  6
CONTINUOUS
100
AcDbLine
 10
135.9745793131249
 20
244.332155214109
 30
0.0
 11
88.56707276293674
 21
244.3321552141089
 31
0.0
  0
LINE
  5
A88
330
1F
100
AcDbEntity
  8
PEF-150A
  6
HIDDEN
100
AcDbLine
 10
85.40479121030953
 20
235.7720278320051
 30
0.0
 11
98.92775277835665
 21
232.1485612005698
 31
0.0
  0
LINE
  5
A89
330
1F
100
AcDbEntity
  8
PEF-150A
  6
CENTER2
100
AcDbLine
 10
78.53166990122581
 20
235.4395951573938
 30
0.0
 11
103.1390565515736
 21
228.8460657765928
 31
0.0
  0
LINE
  5
A8A
330
1F
100
AcDbEntity
  8
PEF-150A
  6
CONTINUOUS
100
AcDbLine
 10
87.64340433037475
 20
248.2940959912346
 30
0.0
 11
111.3437674101487
 21
248.2940959912346
 31
0.0
  0
LINE
  5
A8B
330
1F
100
AcDbEntity
  8
PEF-150A
  6
CONTINUOUS
100
AcDbLine
 10
87.58156612426814
 20
245.2940959912345
 30
0.0
 11
111.3437674101485
 21
245.2940959912345
 31
0.0
  0
LINE
  5
A8C
330
1F
100
AcDbEntity
  8
PEF-150A
  6
CENTER2
100
AcDbLine
 10
125.7980262975714
 20
245.8398371038119
 30
0.0
 11
74.49573569743884
 21
297.1421277039443
 31
0.0
  0
ARC
  5
A8F
330
1F
100
AcDbEntity
  8
PEF-150A
  6
CONTINUOUS
100
AcDbCircle
 10
83.05949616268691
 20
288.5783672386963
 30
0.0
 40
7.499999999999937
100
AcDbArc
 50
45.0
 51
225.0
  0
ARC
  5
A92
330
1F
100
AcDbEntity
  8
PEF-150A
  6
CONTINUOUS
100
AcDbCircle
 10
87.58156612426821
 20
243.2940959912345
 30
0.0
 40
2.0
100
AcDbArc
 50
90.0
 51
157.4430303019404
  0
LINE
  5
A93
330
1F
100
AcDbEntity
  8
PEF-150A
  6
HIDDEN
100
AcDbLine
 10
85.50831882835074
 20
236.1583981625205
 30
0.0
 11
97.09942874381932
 21
233.0525696212905
 31
0.0
  0
LINE
  5
A94
330
1F
100
AcDbEntity
  8
PEF-150A
  6
HIDDEN
100
AcDbLine
 10
84.21422360283804
 20
231.3287690310753
 30
0.0
 11
95.80533351830672
 21
228.2229404898449
 31
0.0
  0
LINE
  5
A95
330
1F
100
AcDbEntity
  8
PEF-150A
  6
CONTINUOUS
100
AcDbLine
 10
83.82101493327871
 20
229.3321551793014
 30
0.0
 11
81.27117655854661
 21
229.3321552141089
 31
0.0
  0
LINE
  5
A96
330
1F
100
AcDbEntity
  8
PEF-150A
  6
HIDDEN
100
AcDbLine
 10
97.09942874381932
 20
233.0525696212905
 30
0.0
 11
97.66511416876864
 21
232.486884196341
 31
0.0
  0
LINE
  5
A97
330
1F
100
AcDbEntity
  8
PEF-150A
  6
HIDDEN
100
AcDbLine
 10
95.80533351830672
 20
228.2229404898449
 30
0.0
 11
96.57807417933813
 21
228.4299957259269
 31
0.0
  0
LINE
  5
A98
330
1F
100
AcDbEntity
  8
PEF-150A
  6
HIDDEN
100
AcDbLine
 10
95.80533351830672
 20
228.2229404898449
 30
0.0
 11
97.09942874381932
 21
233.0525696212905
 31
0.0
  0
LINE
  5
A99
330
1F
100
AcDbEntity
  8
PEF-150A
  6
CENTER2
100
AcDbLine
 10
98.27624801308932
 20
289.652983465368
 30
0.0
 11
82.71989882698544
 21
274.0966342792639
 31
0.0
  0
LINE
  5
A9A
330
1F
100
AcDbEntity
  8
PEF-150A
  6
CONTINUOUS
100
AcDbLine
 10
94.72675805226471
 20
271.9613578808125
 30
0.0
 11
80.58462242853378
 21
286.1034935045434
 31
0.0
  0
LINE
  5
A9B
330
1F
100
AcDbEntity
  8
PEF-150A
  6
CONTINUOUS
100
AcDbLine
 10
95.68300245445355
 20
265.3482586853898
 30
0.0
 11
77.75619530378766
 21
283.2750663797972
 31
0.0
  0
ARC
  5
A9C
330
1F
100
AcDbEntity
  8
PEF-150A
  6
CONTINUOUS
100
AcDbCircle
 10
83.05949616268691
 20
288.5783672386963
 30
0.0
 40
3.499999999999998
100
AcDbArc
 50
45.0
 51
225.0
  0
ARC
  5
A9F
330
1F
100
AcDbEntity
  8
PEF-150A
  6
CENTER2
100
AcDbCircle
 10
157.3057081872744
 20
214.3321552141089
 30
0.0
 40
64.99999999999999
100
AcDbArc
 50
36.34072890785278
 51
68.41516548344475
  0
ARC
  5
AA0
330
1F
100
AcDbEntity
  8
PEF-150A
  6
CONTINUOUS
100
AcDbCircle
 10
157.3057081872744
 20
214.3321552141089
 30
0.0
 40
75.0
100
AcDbArc
 50
66.42182152179946
 51
88.86524685467847
  0
LINE
  5
AA2
330
1F
100
AcDbEntity
  8
PEF-150A
  6
CONTINUOUS
100
AcDbLine
 10
137.099321629704
 20
286.3321552141087
 30
0.0
 11
144.5057081872743
 21
286.3321552141091
 31
0.0
  0
LINE
  5
AA3
330
1F
100
AcDbEntity
  8
PEF-150A
  6
CONTINUOUS
100
AcDbLine
 10
144.5057081872743
 20
246.332155214109
 30
0.0
 11
137.0993216297042
 21
246.3321552141089
 31
0.0
  0
LINE
  5
AA4
330
1F
100
AcDbEntity
  8
PEF-150A
  6
CENTER2
100
AcDbLine
 10
128.1829824978172
 20
266.332155214109
 30
0.0
 11
148.0754122038834
 21
266.332155214109
 31
0.0
  0
LINE
  5
AA5
330
1F
100
AcDbEntity
  8
PEF-150A
  6
CENTER2
100
AcDbLine
 10
148.0754122038833
 20
254.332155214109
 30
0.0
 11
129.6521980622192
 21
254.332155214109
 31
0.0
  0
LINE
  5
AA6
330
1F
100
AcDbEntity
  8
PEF-150A
  6
CENTER2
100
AcDbLine
 10
129.6521980622192
 20
278.3321552141089
 30
0.0
 11
148.0754122038834
 21
278.3321552141089
 31
0.0
  0
ARC
  5
AA7
330
1F
100
AcDbEntity
  8
PEF-150A
  6
CONTINUOUS
100
AcDbCircle
 10
140.0057081872743
 20
246.332155214109
 30
0.0
 40
4.499999999999928
100
AcDbArc
 50
206.3877999612332
 51
0.0
  0
LINE
  5
AA8
330
1F
100
AcDbEntity
  8
PEF-150A
  6
CONTINUOUS
100
AcDbLine
 10
135.6504328902707
 20
247.8321552141089
 30
0.0
 11
135.6504328902705
 21
284.832155214109
 31
0.0
  0
CIRCLE
  5
AA9
330
1F
100
AcDbEntity
  8
PEF-150A
  6
CONTINUOUS
100
AcDbCircle
 10
111.3437674101487
 20
260.2940959912343
 30
0.0
 40
3.900000000000004
  0
LINE
  5
AAA
330
1F
100
AcDbEntity
  8
PEF-150A
  6
CONTINUOUS
100
AcDbLine
 10
110.1483340046292
 20
264.7555141976985
 30
0.0
 11
106.8823492036847
 21
261.4895293967541
 31
0.0
  0
LINE
  5
AAB
330
1F
100
AcDbEntity
  8
PEF-150A
  6
CONTINUOUS
100
AcDbLine
 10
115.8051856166128
 20
259.0986625857149
 30
0.0
 11
114.6097522110931
 21
263.560080792179
 31
0.0
  0
CIRCLE
  5
AAC
330
1F
100
AcDbEntity
  8
PEF-150A
  6
HIDDEN
100
AcDbCircle
 10
111.3437674101487
 20
260.2940959912343
 30
0.0
 40
7.5
  0
ARC
  5
AAD
330
1F
100
AcDbEntity
  8
PEF-150A
  6
CENTER2
100
AcDbCircle
 10
157.3057081872744
 20
214.3321552141089
 30
0.0
 40
65.00000000000001
100
AcDbArc
 50
126.3407289078503
 51
143.659271092147
  0
LINE
  5
AAE
330
1F
100
AcDbEntity
  8
PEF-150A
  6
CONTINUOUS
100
AcDbLine
 10
123.3437674101486
 20
260.2940959912344
 30
0.0
 11
123.3437674101486
 21
283.9944590710087
 31
0.0
  0
LINE
  5
AAF
330
1F
100
AcDbEntity
  8
PEF-150A
  6
CONTINUOUS
100
AcDbLine
 10
126.3437674101486
 20
260.2940959912343
 30
0.0
 11
126.3437674101489
 21
284.0562972771151
 31
0.0
  0
ARC
  5
AB0
330
1F
100
AcDbEntity
  8
PEF-150A
  6
CONTINUOUS
100
AcDbCircle
 10
111.3437674101487
 20
260.2940959912343
 30
0.0
 40
15.0
100
AcDbArc
 50
270.0
 51
0.0
  0
ARC
  5
AB1
330
1F
100
AcDbEntity
  8
PEF-150A
  6
CONTINUOUS
100
AcDbCircle
 10
111.3437674101487
 20
260.2940959912343
 30
0.0
 40
12.0
100
AcDbArc
 50
270.0
 51
0.0
  0
LINE
  5
AB2
330
1F
100
AcDbEntity
  8
PEF-150A
  6
HIDDEN
100
AcDbLine
 10
98.92775277835665
 20
232.1485612005698
 30
0.0
 11
99.55535560887412
 21
229.8063155501039
 31
0.0
  0
CIRCLE
  5
AB3
330
1F
100
AcDbEntity
  8
PEF-150A
  6
CONTINUOUS
100
AcDbCircle
 10
111.3437674101487
 20
260.2940959912343
 30
0.0
 40
2.5
  0
LINE
  5
AB4
330
1F
100
AcDbEntity
  8
PEF-150A
  6
CONTINUOUS
100
AcDbLine
 10
108.0777826092041
 20
257.02811119029
 30
0.0
 11
112.5392008156683
 21
255.8326777847705
 31
0.0
  0
LINE
  5
AB5
330
1F
100
AcDbEntity
  8
PEF-150A
  6
CONTINUOUS
100
AcDbLine
 10
106.8823492036847
 20
261.4895293967541
 30
0.0
 11
108.0777826092041
 21
257.0281111902902
 31
0.0
  0
LINE
  5
AB6
330
1F
100
AcDbEntity
  8
PEF-150A
  6
CONTINUOUS
100
AcDbLine
 10
112.5392008156683
 20
255.8326777847705
 30
0.0
 11
115.8051856166128
 21
259.0986625857149
 31
0.0
  0
CIRCLE
  5
AB7
330
1F
100
AcDbEntity
  8
PEF-150A
  6
CONTINUOUS
100
AcDbCircle
 10
111.3437674101487
 20
260.2940959912343
 30
0.0
 40
2.10000000000002
  0
ARC
  5
AB8
330
1F
100
AcDbEntity
  8
PEF-150A
  6
CONTINUOUS
100
AcDbCircle
 10
140.6043375960939
 20
254.332155214109
 30
0.0
 40
10.03263042854776
100
AcDbArc
 50
159.6035987915812
 51
200.3964012084185
  0
ARC
  5
AB9
330
1F
100
AcDbEntity
  8
PEF-150A
  6
CONTINUOUS
100
AcDbCircle
 10
142.1571015533575
 20
254.332155214109
 30
0.0
 40
11.43010302145402
100
AcDbArc
 50
159.6035987915812
 51
200.3964012084185
  0
ARC
  5
ABA
330
1F
100
AcDbEntity
  8
PEF-150A
  6
CONTINUOUS
100
AcDbCircle
 10
148.5199156568751
 20
254.332155214109
 30
0.0
 40
13.44718002523993
100
AcDbArc
 50
163.1445885536416
 51
196.8554114463581
  0
ARC
  5
ABB
330
1F
100
AcDbEntity
  8
PEF-150A
  6
CONTINUOUS
100
AcDbCircle
 10
137.0993216297042
 20
247.7459566356337
 30
0.0
 40
1.413801421524814
100
AcDbArc
 50
224.2977743115992
 51
270.0
  0
ARC
  5
ABC
330
1F
100
AcDbEntity
  8
PEF-150A
  6
CONTINUOUS
100
AcDbCircle
 10
137.1876594597603
 20
247.8321552141089
 30
0.0
 40
1.537226569489803
100
AcDbArc
 50
180.0
 51
224.2977743115992
  0
LINE
  5
ABD
330
1F
100
AcDbEntity
  8
PEF-150A
  6
CONTINUOUS
100
AcDbLine
 10
131.8269794735892
 20
250.0821552141089
 30
0.0
 11
135.6504328902705
 21
250.0821552141089
 31
0.0
  0
LINE
  5
ABE
330
1F
100
AcDbEntity
  8
PEF-150A
  6
CONTINUOUS
100
AcDbLine
 10
131.4608802959778
 20
250.3088020829074
 30
0.0
 11
131.2158627366946
 21
250.8007071621431
 31
0.0
  0
ARC
  5
ABF
330
1F
100
AcDbEntity
  8
PEF-150A
  6
CONTINUOUS
100
AcDbCircle
 10
131.8269794735892
 20
250.4911558148376
 30
0.0
 40
0.4090006007285893
100
AcDbArc
 50
200.3964012084185
 51
270.0
  0
ARC
  5
AC0
330
1F
100
AcDbEntity
  8
PEF-150A
  6
CONTINUOUS
100
AcDbCircle
 10
131.5372017257024
 20
250.9607658769494
 30
0.0
 40
0.3589951782990516
100
AcDbArc
 50
200.3964012084201
 51
206.4778617607367
  0
LINE
  5
AC1
330
1F
100
AcDbEntity
  8
PEF-150A
  6
CONTINUOUS
100
AcDbLine
 10
135.6504328902705
 20
258.5821552141089
 30
0.0
 11
131.8269794735893
 21
258.5821552141089
 31
0.0
  0
LINE
  5
AC2
330
1F
100
AcDbEntity
  8
PEF-150A
  6
CONTINUOUS
100
AcDbLine
 10
131.4608802959779
 20
258.3555083453104
 30
0.0
 11
131.2158627366946
 21
257.8636032660749
 31
0.0
  0
ARC
  5
AC3
330
1F
100
AcDbEntity
  8
PEF-150A
  6
CONTINUOUS
100
AcDbCircle
 10
131.8269794735892
 20
258.1731546133803
 30
0.0
 40
0.4090006007285825
100
AcDbArc
 50
90.0
 51
159.6035987915812
  0
ARC
  5
AC4
330
1F
100
AcDbEntity
  8
PEF-150A
  6
CONTINUOUS
100
AcDbCircle
 10
131.5372017257024
 20
257.7035445512684
 30
0.0
 40
0.3589951782991027
100
AcDbArc
 50
153.522138239263
 51
159.6035987915854
  0
LINE
  5
AC5
330
1F
100
AcDbEntity
  8
PEF-150A
  6
HIDDEN
100
AcDbLine
 10
116.6470682690478
 20
265.5973968501335
 30
0.0
 11
106.2896079842385
 21
275.9548565857804
 31
0.0
  0
LINE
  5
AC6
330
1F
100
AcDbEntity
  8
PEF-150A
  6
CONTINUOUS
100
AcDbLine
 10
114.6097522110931
 20
263.560080792179
 30
0.0
 11
110.1483340046292
 21
264.7555141976985
 31
0.0
  0
ARC
  5
AC7
330
1F
100
AcDbEntity
  8
PEF-150A
  6
CONTINUOUS
100
AcDbCircle
 10
142.1571015533575
 20
278.3321552141089
 30
0.0
 40
11.4301030214541
100
AcDbArc
 50
159.6035987915812
 51
200.3964012084185
  0
ARC
  5
AC8
330
1F
100
AcDbEntity
  8
PEF-150A
  6
CONTINUOUS
100
AcDbCircle
 10
140.6043375960939
 20
278.3321552141089
 30
0.0
 40
10.03263042854777
100
AcDbArc
 50
159.6035987915812
 51
200.3964012084185
  0
ARC
  5
AC9
330
1F
100
AcDbEntity
  8
PEF-150A
  6
CONTINUOUS
100
AcDbCircle
 10
148.5199156568751
 20
278.3321552141089
 30
0.0
 40
13.44718002523993
100
AcDbArc
 50
163.1445885536416
 51
196.8554114463581
  0
LINE
  5
ACA
330
1F
100
AcDbEntity
  8
PEF-150A
  6
CONTINUOUS
100
AcDbLine
 10
131.8269794735892
 20
274.0821552141091
 30
0.0
 11
135.6504328902705
 21
274.0821552141089
 31
0.0
  0
LINE
  5
ACB
330
1F
100
AcDbEntity
  8
PEF-150A
  6
CONTINUOUS
100
AcDbLine
 10
131.4608802959778
 20
274.3088020829076
 30
0.0
 11
131.2158627366946
 21
274.8007071621429
 31
0.0
  0
ARC
  5
ACC
330
1F
100
AcDbEntity
  8
PEF-150A
  6
CONTINUOUS
100
AcDbCircle
 10
131.8269794735892
 20
274.4911558148376
 30
0.0
 40
0.4090006007285844
100
AcDbArc
 50
200.396401208416
 51
270.0
  0
ARC
  5
ACD
330
1F
100
AcDbEntity
  8
PEF-150A
  6
CONTINUOUS
100
AcDbCircle
 10
131.5372017257024
 20
274.9607658769495
 30
0.0
 40
0.3589951782991557
100
AcDbArc
 50
200.3964012084129
 51
206.4778617607367
  0
ARC
  5
ACE
330
1F
100
AcDbEntity
  8
PEF-150A
  6
CONTINUOUS
100
AcDbCircle
 10
128.3437674101487
 20
284.0562972771153
 30
0.0
 40
2.000000000000005
100
AcDbArc
 50
112.5569696980578
 51
180.0
  0
ARC
  5
ACF
330
1F
100
AcDbEntity
  8
PEF-150A
  6
CONTINUOUS
100
AcDbCircle
 10
137.0993216297042
 20
284.9183537925842
 30
0.0
 40
1.413801421524793
100
AcDbArc
 50
90.0
 51
135.7022256884006
  0
ARC
  5
AD0
330
1F
100
AcDbEntity
  8
PEF-150A
  6
CONTINUOUS
100
AcDbCircle
 10
137.1876594597603
 20
284.832155214109
 30
0.0
 40
1.537226569489825
100
AcDbArc
 50
135.7022256884006
 51
180.0
  0
LINE
  5
AD1
330
1F
100
AcDbEntity
  8
PEF-150A
  6
CONTINUOUS
100
AcDbLine
 10
135.6504328902705
 20
282.5821552141088
 30
0.0
 11
131.8269794735892
 21
282.5821552141088
 31
0.0
  0
LINE
  5
AD2
330
1F
100
AcDbEntity
  8
PEF-150A
  6
CONTINUOUS
100
AcDbLine
 10
131.4608802959779
 20
282.3555083453105
 30
0.0
 11
131.2158627366946
 21
281.8636032660748
 31
0.0
  0
ARC
  5
AD3
330
1F
100
AcDbEntity
  8
PEF-150A
  6
CONTINUOUS
100
AcDbCircle
 10
131.8269794735892
 20
282.1731546133804
 30
0.0
 40
0.4090006007285754
100
AcDbArc
 50
90.0
 51
159.6035987915812
  0
ARC
  5
AD4
330
1F
100
AcDbEntity
  8
PEF-150A
  6
CONTINUOUS
100
AcDbCircle
 10
131.5372017257026
 20
281.7035445512684
 30
0.0
 40
0.3589951782990996
100
AcDbArc
 50
153.522138239263
 51
159.6035987915854
  0
LINE
  5
AD5
330
1F
100
AcDbEntity
  8
PEF-150A
  6
CONTINUOUS
100
AcDbLine
 10
144.0539875789854
 20
246.332155214109
 30
0.0
 11
144.0539875789855
 21
286.3321552141087
 31
0.0
  0
LINE
  5
AD6
330
1F
100
AcDbEntity
  8
PEF-150A
  6
CONTINUOUS
100
AcDbLine
 10
142.8948765874386
 20
246.332155214109
 30
0.0
 11
142.8948765874385
 21
286.3321552141091
 31
0.0
  0
LINE
  5
AD7
330
1F
100
AcDbEntity
  8
PEF-150A
  6
CONTINUOUS
100
AcDbLine
 10
141.4459878480049
 20
246.332155214109
 30
0.0
 11
141.445987848005
 21
286.3321552141088
 31
0.0
  0
LINE
  5
AD8
330
1F
100
AcDbEntity
  8
PEF-150A
  6
CONTINUOUS
100
AcDbLine
 10
144.5057081872745
 20
288.2318169183415
 30
0.0
 11
144.5057081872743
 21
246.332155214109
 31
0.0
  0
LINE
  5
AD9
330
1F
100
AcDbEntity
  8
PEF-150A
  6
CONTINUOUS
100
AcDbLine
 10
142.3057081872744
 20
242.4643392929463
 30
0.0
 11
142.3057081872744
 21
246.332155214109
 31
0.0
  0
ARC
  5
ADA
330
1F
100
AcDbEntity
  8
PEF-150A
  6
CONTINUOUS
100
AcDbCircle
 10
157.3057081872744
 20
214.3321552141089
 30
0.0
 40
75.0
100
AcDbArc
 50
91.1347531453215
 51
99.82658271656909
  0
LINE
  5
ADB
330
1F
100
AcDbEntity
  8
PEF-150A
  6
CONTINUOUS
100
AcDbLine
 10
148.5531468912866
 20
288.8196904175675
 30
0.0
 11
148.5531493040165
 21
291.3363285620198
 31
0.0
  0
LINE
  5
ADC
330
1F
100
AcDbEntity
  8
PEF-150A
  6
CONTINUOUS
100
AcDbLine
 10
145.6057057902123
 20
288.4139325135146
 30
0.0
 11
145.605708187274
 21
290.9439036604146
 31
0.0
  0
LINE
  5
ADD
330
1F
100
AcDbEntity
  8
PEF-150A
  6
CONTINUOUS
100
AcDbLine
 10
142.3057081872743
 20
286.3321552141088
 30
0.0
 11
142.3057081872743
 21
290.3666868428368
 31
0.0
  0
LINE
  5
ADE
330
1F
100
AcDbEntity
  8
PEF-150A
  6
CONTINUOUS
100
AcDbLine
 10
157.3057081872744
 20
287.8321552141088
 30
0.0
 11
155.8204168976816
 21
289.3174465037017
 31
0.0
  0
LINE
  5
ADF
330
1F
100
AcDbEntity
  8
PEF-150A
  6
CONTINUOUS
100
AcDbLine
 10
157.3057081872744
 20
287.8321552141088
 30
0.0
 11
158.790999476867
 21
289.3174465037017
 31
0.0
  0
LINE
  5
AE0
330
1F
100
AcDbEntity
  8
PEF-150A
  6
CONTINUOUS
100
AcDbLine
 10
161.4557081872745
 20
293.4321552141091
 30
0.0
 11
153.1557081872743
 21
293.4321552141089
 31
0.0
  0
ARC
  5
AE1
330
1F
100
AcDbEntity
  8
PEF-150A
  6
CONTINUOUS
100
AcDbCircle
 10
157.3057081872744
 20
285.525807847171
 30
0.0
 40
10.40634736693795
100
AcDbArc
 50
67.38712560451961
 51
112.6128743954804
  0
LINE
  5
AE2
330
1F
100
AcDbEntity
  8
PEF-150A
  6
CONTINUOUS
100
AcDbLine
 10
153.1557081872743
 20
293.4321552141089
 30
0.0
 11
153.3044389152681
 21
295.1321552141088
 31
0.0
  0
LINE
  5
AE3
330
1F
100
AcDbEntity
  8
PEF-150A
  6
CONTINUOUS
100
AcDbLine
 10
161.4557081872745
 20
293.4321552141091
 30
0.0
 11
161.3069774592803
 21
295.1321552141091
 31
0.0
  0
LINE
  5
AE4
330
1F
100
AcDbEntity
  8
PEF-150A
  6
HIDDEN
100
AcDbLine
 10
179.1319511356862
 20
286.1295445730327
 30
0.0
 11
176.0261225944556
 21
274.5384346575641
 31
0.0
  0
LINE
  5
AE5
330
1F
100
AcDbEntity
  8
PEF-150A
  6
HIDDEN
100
AcDbLine
 10
174.3023220042408
 20
287.4236397985455
 30
0.0
 11
171.1964934630105
 21
275.8325298830765
 31
0.0
  0
LINE
  5
AE6
330
1F
100
AcDbEntity
  8
PEF-150A
  6
HIDDEN
100
AcDbLine
 10
178.7455808051705
 20
286.2330721910737
 30
0.0
 11
175.122114173735
 21
272.7101106230268
 31
0.0
  0
LINE
  5
AE7
330
1F
100
AcDbEntity
  8
PEF-150A
  6
HIDDEN
100
AcDbLine
 10
174.6886923347565
 20
287.3201121805044
 30
0.0
 11
171.0652257033211
 21
273.7971506124574
 31
0.0
  0
LINE
  5
AE8
330
1F
100
AcDbEntity
  8
PEF-150A
  6
CENTER2
100
AcDbLine
 10
178.4131481305593
 20
293.1061935001576
 30
0.0
 11
171.8196187497584
 21
268.4988068498096
 31
0.0
  0
LINE
  5
AE9
330
1F
100
AcDbEntity
  8
PEF-150A
  6
HIDDEN
100
AcDbLine
 10
175.122114173735
 20
272.7101106230268
 30
0.0
 11
172.779868523269
 21
272.0825077925093
 31
0.0
  0
LINE
  5
AEA
330
1F
100
AcDbEntity
  8
PEF-150A
  6
HIDDEN
100
AcDbLine
 10
171.0652257033211
 20
273.7971506124574
 30
0.0
 11
175.122114173735
 21
272.7101106230268
 31
0.0
  0
LINE
  5
AEB
330
1F
100
AcDbEntity
  8
PEF-150A
  6
HIDDEN
100
AcDbLine
 10
171.1964934630105
 20
275.8325298830765
 30
0.0
 11
176.0261225944556
 21
274.5384346575641
 31
0.0
  0
LINE
  5
AEC
330
1F
100
AcDbEntity
  8
PEF-150A
  6
HIDDEN
100
AcDbLine
 10
171.1964934630105
 20
275.8325298830765
 30
0.0
 11
171.4035486990925
 21
275.0597892220454
 31
0.0
  0
LINE
  5
AED
330
1F
100
AcDbEntity
  8
PEF-150A
  6
HIDDEN
100
AcDbLine
 10
171.0652257033211
 20
273.7971506124574
 30
0.0
 11
172.779868523269
 21
272.0825077925093
 31
0.0
  0
LINE
  5
AEE
330
1F
100
AcDbEntity
  8
PEF-150A
  6
HIDDEN
100
AcDbLine
 10
176.0261225944556
 20
274.5384346575641
 30
0.0
 11
175.4604371695065
 21
273.9727492326148
 31
0.0
  0
LINE
  5
AEF
330
1F
100
AcDbEntity
  8
PEF-150A
  6
CONTINUOUS
100
AcDbLine
 10
168.8057103678491
 20
288.4452435486709
 30
0.0
 11
168.8057081872741
 21
290.9741802395478
 31
0.0
  0
LINE
  5
AF0
330
1F
100
AcDbEntity
  8
PEF-150A
  6
CONTINUOUS
100
AcDbLine
 10
172.3057103678492
 20
287.8168484681045
 30
0.0
 11
172.3057081872743
 21
290.3666868428368
 31
0.0
  0
LINE
  5
AF7
330
1F
100
AcDbEntity
  8
PEF-150A
  6
CONTINUOUS
100
AcDbLine
 10
189.3057081872743
 20
228.7429868139448
 30
0.0
 11
229.3057081872744
 21
228.7429868139448
 31
0.0
  0
LINE
  5
AF8
330
1F
100
AcDbEntity
  8
PEF-150A
  6
CONTINUOUS
100
AcDbLine
 10
189.3057081872743
 20
230.1918755533784
 30
0.0
 11
229.3057081872743
 21
230.1918755533784
 31
0.0
  0
LINE
  5
AF9
330
1F
100
AcDbEntity
  8
PEF-150A
  6
CONTINUOUS
100
AcDbLine
 10
190.8057081872743
 20
235.9874305111129
 30
0.0
 11
227.8057081872743
 21
235.9874305111129
 31
0.0
  0
LINE
  5
AFA
330
1F
100
AcDbEntity
  8
PEF-150A
  6
CENTER2
100
AcDbLine
 10
232.6265364385333
 20
273.3616153882941
 30
0.0
 11
217.0701872524293
 21
288.9179645743981
 31
0.0
  0
LINE
  5
AFB
330
1F
100
AcDbEntity
  8
PEF-150A
  6
CONTINUOUS
100
AcDbLine
 10
214.9349108539778
 20
276.9111053491186
 30
0.0
 11
229.0770464777088
 21
291.0532409728496
 31
0.0
  0
LINE
  5
AFC
330
1F
100
AcDbEntity
  8
PEF-150A
  6
CONTINUOUS
100
AcDbLine
 10
219.8846583222835
 20
271.9613578808126
 30
0.0
 11
234.0267939460145
 21
286.1034935045438
 31
0.0
  0
LINE
  5
AFD
330
1F
100
AcDbEntity
  8
PEF-150A
  6
CONTINUOUS
100
AcDbLine
 10
218.9284095589457
 20
265.3482554171448
 30
0.0
 11
236.8552210707608
 21
283.2750663797976
 31
0.0
  0
ARC
  5
AFE
330
1F
100
AcDbEntity
  8
PEF-150A
  6
CONTINUOUS
100
AcDbCircle
 10
231.5519202118617
 20
288.5783672386967
 30
0.0
 40
7.500000000000007
100
AcDbArc
 50
315.0
 51
135.0
  0
LINE
  5
AFF
330
1F
100
AcDbEntity
  8
PEF-150A
  6
CENTER2
100
AcDbLine
 10
188.8133900769773
 20
245.839837103812
 30
0.0
 11
240.1156774088645
 21
297.1421277039443
 31
0.0
  0
ARC
  5
B00
330
1F
100
AcDbEntity
  8
PEF-150A
  6
CONTINUOUS
100
AcDbCircle
 10
227.0298502502806
 20
243.2940959912347
 30
0.0
 40
2.000000000000013
100
AcDbArc
 50
22.55696969805935
 51
90.0
  0
CIRCLE
  5
B01
330
1F
100
AcDbEntity
  8
PEF-150A
  6
CONTINUOUS
100
AcDbCircle
 10
203.2676489643999
 20
260.2940959912348
 30
0.0
 40
3.899999999999998
  0
LINE
  5
B02
330
1F
100
AcDbEntity
  8
PEF-150A
  6
CONTINUOUS
100
AcDbLine
 10
207.7290671708639
 20
261.4895293967541
 30
0.0
 11
204.4630823699193
 21
264.7555141976985
 31
0.0
  0
LINE
  5
B03
330
1F
100
AcDbEntity
  8
PEF-150A
  6
CONTINUOUS
100
AcDbLine
 10
200.0016641634553
 20
263.5600807921791
 30
0.0
 11
198.806230757936
 21
259.0986625857151
 31
0.0
  0
CIRCLE
  5
B04
330
1F
100
AcDbEntity
  8
PEF-150A
  6
HIDDEN
100
AcDbCircle
 10
203.2676489643999
 20
260.2940959912347
 30
0.0
 40
7.5
  0
LINE
  5
B05
330
1F
100
AcDbEntity
  8
PEF-150A
  6
HIDDEN
100
AcDbLine
 10
208.5709498232991
 20
254.9907951323354
 30
0.0
 11
218.9284095589457
 21
265.3482554171448
 31
0.0
  0
LINE
  5
B06
330
1F
100
AcDbEntity
  8
PEF-150A
  6
CONTINUOUS
100
AcDbLine
 10
187.3057081872743
 20
235.6632840882583
 30
0.0
 11
187.3057081872744
 21
283.0707906384466
 31
0.0
  0
LINE
  5
B07
330
1F
100
AcDbEntity
  8
PEF-150A
  6
CONTINUOUS
100
AcDbLine
 10
191.2676489644
 20
283.9944590710087
 30
0.0
 11
191.2676489644
 21
260.2940959912343
 31
0.0
  0
LINE
  5
B08
330
1F
100
AcDbEntity
  8
PEF-150A
  6
CONTINUOUS
100
AcDbLine
 10
188.2676489643999
 20
284.0562972771153
 30
0.0
 11
188.2676489644
 21
260.2940959912347
 31
0.0
  0
LINE
  5
B09
330
1F
100
AcDbEntity
  8
PEF-150A
  6
CONTINUOUS
100
AcDbLine
 10
202.0722155588805
 20
255.8326777847708
 30
0.0
 11
206.5336337653443
 21
257.0281111902902
 31
0.0
  0
LINE
  5
B0A
330
1F
100
AcDbEntity
  8
PEF-150A
  6
CONTINUOUS
100
AcDbLine
 10
203.2676489643999
 20
248.2940959912347
 30
0.0
 11
226.968012044174
 21
248.2940959912347
 31
0.0
  0
LINE
  5
B0B
330
1F
100
AcDbEntity
  8
PEF-150A
  6
CONTINUOUS
100
AcDbLine
 10
203.2676489643999
 20
245.2940959912347
 30
0.0
 11
227.0298502502806
 21
245.2940959912345
 31
0.0
  0
ARC
  5
B0C
330
1F
100
AcDbEntity
  8
PEF-150A
  6
CONTINUOUS
100
AcDbCircle
 10
203.2676489643999
 20
260.2940959912347
 30
0.0
 40
14.99999999999998
100
AcDbArc
 50
180.0
 51
270.0
  0
ARC
  5
B0D
330
1F
100
AcDbEntity
  8
PEF-150A
  6
CONTINUOUS
100
AcDbCircle
 10
197.3057081872744
 20
229.4807618480259
 30
0.0
 40
11.43010302145403
100
AcDbArc
 50
69.60359879158189
 51
110.3964012084181
  0
ARC
  5
B0E
330
1F
100
AcDbEntity
  8
PEF-150A
  6
CONTINUOUS
100
AcDbCircle
 10
197.3057081872743
 20
231.0335258052893
 30
0.0
 40
10.03263042854777
100
AcDbArc
 50
69.60359879158189
 51
110.3964012084181
  0
ARC
  5
B0F
330
1F
100
AcDbEntity
  8
PEF-150A
  6
CONTINUOUS
100
AcDbCircle
 10
197.3057081872744
 20
223.1179477445083
 30
0.0
 40
13.44718002523985
100
AcDbArc
 50
73.14458855364328
 51
106.8554114463567
  0
LINE
  5
B10
330
1F
100
AcDbEntity
  8
PEF-150A
  6
CONTINUOUS
100
AcDbLine
 10
193.0557081872745
 20
239.810883927794
 30
0.0
 11
193.0557081872743
 21
235.9874305111128
 31
0.0
  0
ARC
  5
B11
330
1F
100
AcDbEntity
  8
PEF-150A
  6
CONTINUOUS
100
AcDbCircle
 10
190.8057081872743
 20
234.450203941623
 30
0.0
 40
1.537226569489817
100
AcDbArc
 50
90.0
 51
134.2977743116003
  0
ARC
  5
B12
330
1F
100
AcDbEntity
  8
PEF-150A
  6
CONTINUOUS
100
AcDbCircle
 10
190.719509608799
 20
234.538541771679
 30
0.0
 40
1.413801421524793
100
AcDbArc
 50
134.2977743116003
 51
180.0
  0
LINE
  5
B13
330
1F
100
AcDbEntity
  8
PEF-150A
  6
CONTINUOUS
100
AcDbLine
 10
185.4378922661116
 20
229.332155214109
 30
0.0
 11
189.3057081872743
 21
229.332155214109
 31
0.0
  0
LINE
  5
B14
330
1F
100
AcDbEntity
  8
PEF-150A
  6
CONTINUOUS
100
AcDbLine
 10
193.2823550560729
 20
240.1769831054052
 30
0.0
 11
193.7742601353084
 21
240.4220006646886
 31
0.0
  0
ARC
  5
B15
330
1F
100
AcDbEntity
  8
PEF-150A
  6
CONTINUOUS
100
AcDbCircle
 10
193.4647087880031
 20
239.810883927794
 30
0.0
 40
0.4090006007285826
100
AcDbArc
 50
110.3964012084181
 51
180.0
  0
ARC
  5
B16
330
1F
100
AcDbEntity
  8
PEF-150A
  6
CONTINUOUS
100
AcDbCircle
 10
193.934318850115
 20
240.1006616756809
 30
0.0
 40
0.3589951782990957
100
AcDbArc
 50
110.3964012084181
 51
116.4778617607448
  0
LINE
  5
B17
330
1F
100
AcDbEntity
  8
PEF-150A
  6
CONTINUOUS
100
AcDbLine
 10
201.5557081872743
 20
235.9874305111128
 30
0.0
 11
201.5557081872745
 21
239.810883927794
 31
0.0
  0
LINE
  5
B18
330
1F
100
AcDbEntity
  8
PEF-150A
  6
CONTINUOUS
100
AcDbLine
 10
201.3290613184758
 20
240.1769831054052
 30
0.0
 11
200.8371562392404
 21
240.4220006646886
 31
0.0
  0
ARC
  5
B19
330
1F
100
AcDbEntity
  8
PEF-150A
  6
CONTINUOUS
100
AcDbCircle
 10
201.1467075865459
 20
239.810883927794
 30
0.0
 40
0.4090006007285825
100
AcDbArc
 50
0.0
 51
69.60359879158189
  0
ARC
  5
B1A
330
1F
100
AcDbEntity
  8
PEF-150A
  6
CONTINUOUS
100
AcDbCircle
 10
200.6770975244339
 20
240.1006616756809
 30
0.0
 40
0.3589951782990932
100
AcDbArc
 50
63.52213823925231
 51
69.60359879158189
  0
ARC
  5
B1B
330
1F
100
AcDbEntity
  8
PEF-150A
  6
CONTINUOUS
100
AcDbCircle
 10
203.2676489643999
 20
260.2940959912347
 30
0.0
 40
12.0
100
AcDbArc
 50
180.0
 51
270.0
  0
LINE
  5
B1C
330
1F
100
AcDbEntity
  8
PEF-150A
  6
CONTINUOUS
100
AcDbLine
 10
198.806230757936
 20
259.0986625857151
 30
0.0
 11
202.0722155588805
 21
255.8326777847708
 31
0.0
  0
CIRCLE
  5
B1D
330
1F
100
AcDbEntity
  8
PEF-150A
  6
CONTINUOUS
100
AcDbCircle
 10
203.2676489643999
 20
260.2940959912348
 30
0.0
 40
2.1
  0
CIRCLE
  5
B1E
330
1F
100
AcDbEntity
  8
PEF-150A
  6
CONTINUOUS
100
AcDbCircle
 10
203.2676489643999
 20
260.2940959912348
 30
0.0
 40
2.5
  0
LINE
  5
B1F
330
1F
100
AcDbEntity
  8
PEF-150A
  6
CONTINUOUS
100
AcDbLine
 10
225.5557081872743
 20
235.9874305111129
 30
0.0
 11
225.5557081872744
 21
239.810883927794
 31
0.0
  0
LINE
  5
B20
330
1F
100
AcDbEntity
  8
PEF-150A
  6
CONTINUOUS
100
AcDbLine
 10
217.0557081872745
 20
239.810883927794
 30
0.0
 11
217.0557081872743
 21
235.9874305111129
 31
0.0
  0
ARC
  5
B21
330
1F
100
AcDbEntity
  8
PEF-150A
  6
CONTINUOUS
100
AcDbCircle
 10
221.3057081872743
 20
223.1179477445083
 30
0.0
 40
13.44718002523985
100
AcDbArc
 50
73.14458855364328
 51
106.8554114463567
  0
ARC
  5
B22
330
1F
100
AcDbEntity
  8
PEF-150A
  6
CONTINUOUS
100
AcDbCircle
 10
221.3057081872744
 20
229.4807618480258
 30
0.0
 40
11.43010302145403
100
AcDbArc
 50
69.60359879158189
 51
110.3964012084181
  0
ARC
  5
B23
330
1F
100
AcDbEntity
  8
PEF-150A
  6
CONTINUOUS
100
AcDbCircle
 10
221.3057081872743
 20
231.0335258052893
 30
0.0
 40
10.03263042854781
100
AcDbArc
 50
69.60359879158189
 51
110.3964012084181
  0
LINE
  5
B24
330
1F
100
AcDbEntity
  8
PEF-150A
  6
CONTINUOUS
100
AcDbLine
 10
217.282355056073
 20
240.1769831054052
 30
0.0
 11
217.7742601353084
 21
240.4220006646886
 31
0.0
  0
ARC
  5
B25
330
1F
100
AcDbEntity
  8
PEF-150A
  6
CONTINUOUS
100
AcDbCircle
 10
217.464708788003
 20
239.810883927794
 30
0.0
 40
0.4090006007285868
100
AcDbArc
 50
110.3964012084181
 51
180.0
  0
ARC
  5
B26
330
1F
100
AcDbEntity
  8
PEF-150A
  6
CONTINUOUS
100
AcDbCircle
 10
217.934318850115
 20
240.1006616756809
 30
0.0
 40
0.358995178299085
100
AcDbArc
 50
110.3964012084181
 51
116.4778617607475
  0
LINE
  5
B27
330
1F
100
AcDbEntity
  8
PEF-150A
  6
CONTINUOUS
100
AcDbLine
 10
225.3290613184756
 20
240.1769831054052
 30
0.0
 11
224.8371562392404
 21
240.4220006646886
 31
0.0
  0
ARC
  5
B28
330
1F
100
AcDbEntity
  8
PEF-150A
  6
CONTINUOUS
100
AcDbCircle
 10
225.1467075865458
 20
239.810883927794
 30
0.0
 40
0.4090006007285825
100
AcDbArc
 50
0.0
 51
69.60359879158189
  0
ARC
  5
B29
330
1F
100
AcDbEntity
  8
PEF-150A
  6
CONTINUOUS
100
AcDbCircle
 10
224.6770975244338
 20
240.1006616756809
 30
0.0
 40
0.3589951782990901
100
AcDbArc
 50
63.52213823925231
 51
69.60359879158189
  0
LINE
  5
B2A
330
1F
100
AcDbEntity
  8
PEF-150A
  6
CONTINUOUS
100
AcDbLine
 10
206.5336337653443
 20
257.0281111902902
 30
0.0
 11
207.7290671708639
 21
261.4895293967541
 31
0.0
  0
LINE
  5
B2D
330
1F
100
AcDbEntity
  8
PEF-150A
  6
HIDDEN
100
AcDbLine
 10
197.9643481055005
 20
265.5973968501335
 30
0.0
 11
208.3218116585551
 21
275.9548609469299
 31
0.0
  0
LINE
  5
B2E
330
1F
100
AcDbEntity
  8
PEF-150A
  6
CONTINUOUS
100
AcDbLine
 10
204.4630823699193
 20
264.7555141976985
 30
0.0
 11
200.0016641634553
 21
263.5600807921791
 31
0.0
  0
ARC
  5
B2F
330
1F
100
AcDbEntity
  8
PEF-150A
  6
CONTINUOUS
100
AcDbCircle
 10
186.2676489644
 20
284.0562972771153
 30
0.0
 40
2.0
100
AcDbArc
 50
0.0
 51
67.44303030194216
  0
LINE
  5
B31
330
1F
100
AcDbEntity
  8
PEF-150A
  6
CONTINUOUS
100
AcDbLine
 10
208.3218116585551
 20
275.9548609469299
 30
0.0
 11
226.2486193529626
 21
293.8816680975958
 31
0.0
  0
ARC
  5
B32
330
1F
100
AcDbEntity
  8
PEF-150A
  6
CONTINUOUS
100
AcDbCircle
 10
217.4097845881306
 20
274.4362316149657
 30
0.0
 40
3.500000000000017
100
AcDbArc
 50
135.0
 51
315.0
  0
LINE
  5
B34
330
1F
100
AcDbEntity
  8
PEF-150A
  6
CONTINUOUS
100
AcDbLine
 10
229.3057081872744
 20
229.332155214109
 30
0.0
 11
233.340239816002
 21
229.332155214109
 31
0.0
  0
ARC
  5
B35
330
1F
100
AcDbEntity
  8
PEF-150A
  6
CONTINUOUS
100
AcDbCircle
 10
227.8919067657495
 20
234.5385417716793
 30
0.0
 40
1.413801421524791
100
AcDbArc
 50
0.0
 51
45.70222568839952
  0
ARC
  5
B36
330
1F
100
AcDbEntity
  8
PEF-150A
  6
CONTINUOUS
100
AcDbCircle
 10
227.8057081872743
 20
234.450203941623
 30
0.0
 40
1.537226569489839
100
AcDbArc
 50
45.70222568839952
 51
90.0
  0
ARC
  5
B37
330
1F
100
AcDbEntity
  8
PEF-150A
  6
CONTINUOUS
100
AcDbCircle
 10
231.5519202118617
 20
288.5783672386967
 30
0.0
 40
3.500000000000003
100
AcDbArc
 50
315.0
 51
135.0
  0
LINE
  5
B45
330
1F
100
AcDbEntity
  8
PEF-150A
  6
CONTINUOUS
100
AcDbLine
 10
424.7077006734518
 20
134.8321552141094
 30
0.0
 11
424.7077006734518
 21
293.8321552141093
 31
0.0
  0
LINE
  5
B49
330
1F
100
AcDbEntity
  8
PEF-150A
  6
CONTINUOUS
100
AcDbLine
 10
449.7077006734518
 20
135.3321552141094
 30
0.0
 11
449.7077006734518
 21
293.3321552141094
 31
0.0
  0
LINE
  5
B4C
330
1F
100
AcDbEntity
  8
PEF-150A
  6
CONTINUOUS
100
AcDbLine
 10
424.7077006734516
 20
135.2321552141094
 30
0.0
 11
424.7077006734518
 21
293.4321552141096
 31
0.0
  0
LINE
  5
B52
330
1F
100
AcDbEntity
  8
PEF-150A
  6
CONTINUOUS
100
AcDbLine
 10
328.3654862229045
 20
139.6321552141092
 30
0.0
 11
328.3654862229045
 21
289.0321552141092
 31
0.0
  0
LINE
  5
B5B
330
1F
100
AcDbEntity
  8
PEF-150A
  6
HIDDEN
100
AcDbLine
 10
424.7077006734518
 20
135.8321552141096
 30
0.0
 11
449.7077006734518
 21
135.8321552141094
 31
0.0
  0
ARC
  5
B5C
330
1F
100
AcDbEntity
  8
PEF-150A
  6
CONTINUOUS
100
AcDbCircle
 10
443.7077006734518
 20
136.3321552141094
 30
0.0
 40
2.0
100
AcDbArc
 50
180.0
 51
270.0
  0
LINE
  5
B5D
330
1F
100
AcDbEntity
  8
PEF-150A
  6
CONTINUOUS
100
AcDbLine
 10
425.207700673452
 20
134.3321552141094
 30
0.0
 11
448.7077006734518
 21
134.3321552141094
 31
0.0
  0
LINE
  5
B5E
330
1F
100
AcDbEntity
  8
PEF-150A
  6
CENTER2
100
AcDbLine
 10
432.9630624938284
 20
168.3702144369838
 30
0.0
 11
466.5293027942921
 21
168.3702144369835
 31
0.0
  0
LINE
  5
B5F
330
1F
100
AcDbEntity
  8
PEF-150A
  6
CENTER2
100
AcDbLine
 10
320.3654862229045
 20
214.332155214109
 30
0.0
 11
457.6169124761788
 21
214.3321552141093
 31
0.0
  0
LINE
  5
B72
330
1F
100
AcDbEntity
  8
PEF-150A
  6
CONTINUOUS
100
AcDbLine
 10
346.7077006734518
 20
136.8321552141096
 30
0.0
 11
424.7077006734516
 21
136.8321552141094
 31
0.0
  0
LINE
  5
B73
330
1F
100
AcDbEntity
  8
PEF-150A
  6
CONTINUOUS
100
AcDbLine
 10
346.7077006734518
 20
135.2321552141094
 30
0.0
 11
424.7077006734516
 21
135.2321552141094
 31
0.0
  0
LINE
  5
B83
330
1F
100
AcDbEntity
  8
PEF-150A
  6
HIDDEN
100
AcDbLine
 10
328.3654862229045
 20
140.8321552141091
 30
0.0
 11
344.3654862229046
 21
140.8321552141091
 31
0.0
  0
LINE
  5
B84
330
1F
100
AcDbEntity
  8
PEF-150A
  6
CONTINUOUS
100
AcDbLine
 10
328.6654862229045
 20
139.332155214109
 30
0.0
 11
344.0654862229046
 21
139.332155214109
 31
0.0
  0
LINE
  5
B85
330
1F
100
AcDbEntity
  8
PEF-150A
  6
CONTINUOUS
100
AcDbLine
 10
328.6654862229045
 20
139.332155214109
 30
0.0
 11
328.3654862229045
 21
139.6321552141092
 31
0.0
  0
LINE
  5
B87
330
1F
100
AcDbEntity
  8
PEF-150A
  6
CENTER2
100
AcDbLine
 10
336.3654862229043
 20
134.3321552141092
 30
0.0
 11
336.3654862229046
 21
146.332155214109
 31
0.0
  0
LINE
  5
BD2
330
1F
100
AcDbEntity
  8
PEF-150A
  6
CONTINUOUS
100
AcDbLine
 10
328.3654862229045
 20
227.132155214109
 30
0.0
 11
344.3654862229045
 21
222.8449681352113
 31
0.0
  0
LINE
  5
BDD
330
1F
100
AcDbEntity
  8
PEF-150A
  6
CONTINUOUS
100
AcDbLine
 10
441.7077006734515
 20
178.6356236335934
 30
0.0
 11
441.7077006734515
 21
143.748228304251
 31
0.0
  0
LINE
  5
BDE
330
1F
100
AcDbEntity
  8
PEF-150A
  6
CONTINUOUS
100
AcDbLine
 10
441.7077006734518
 20
136.3321552141094
 30
0.0
 11
441.7077006734518
 21
159.5975644107193
 31
0.0
  0
LINE
  5
BF2
330
1F
100
AcDbEntity
  8
PEF-150A
  6
CONTINUOUS
100
AcDbLine
 10
424.7077006734518
 20
136.8321552141094
 30
0.0
 11
408.7077006734518
 21
136.8321552141094
 31
0.0
  0
LINE
  5
BF3
330
1F
100
AcDbEntity
  8
PEF-150A
  6
CENTER2
100
AcDbLine
 10
417.2077006734518
 20
142.6946611103704
 30
0.0
 11
417.2077006734518
 21
130.7300100842288
 31
0.0
  0
LINE
  5
BF4
330
1F
100
AcDbEntity
  8
PEF-150A
  6
CENTER2
100
AcDbLine
 10
417.2077006734515
 20
130.4657490884852
 30
0.0
 11
417.2077006734515
 21
143.1385025810475
 31
0.0
  0
ARC
  5
BF6
330
1F
100
AcDbEntity
  8
PEF-150A
  6
CONTINUOUS
100
AcDbCircle
 10
417.2077006734515
 20
143.1385025810475
 30
0.0
 40
10.40634736693798
100
AcDbArc
 50
247.3871256045195
 51
292.6128743954803
  0
LINE
  5
BF7
330
1F
100
AcDbEntity
  8
PEF-150A
  6
CONTINUOUS
100
AcDbLine
 10
413.0577006734515
 20
135.2321552141094
 30
0.0
 11
413.2064314014454
 21
133.5321552141095
 31
0.0
  0
LINE
  5
BF8
330
1F
100
AcDbEntity
  8
PEF-150A
  6
CONTINUOUS
100
AcDbLine
 10
421.3577006734518
 20
135.2321552141094
 30
0.0
 11
421.2089699454576
 21
133.5321552141095
 31
0.0
  0
LINE
  5
BFA
330
1F
100
AcDbEntity
  8
PEF-150A
  6
CONTINUOUS
100
AcDbLine
 10
424.7077006734518
 20
140.5665926302465
 30
0.0
 11
439.8639554253253
 21
141.7543415340164
 31
0.0
  0
LINE
  5
BFB
330
1F
100
AcDbEntity
  8
PEF-150A
  6
CONTINUOUS
100
AcDbLine
 10
425.207700673452
 20
134.3321552141094
 30
0.0
 11
424.7077006734518
 21
134.8321552141094
 31
0.0
  0
ARC
  5
BFC
330
1F
100
AcDbEntity
  8
PEF-150A
  6
CONTINUOUS
100
AcDbCircle
 10
439.7077006734516
 20
143.748228304251
 30
0.0
 40
2.0
100
AcDbArc
 50
274.4809353344991
 51
0.0
  0
LINE
  5
C51
330
1F
100
AcDbEntity
  8
PEF-150A
  6
CONTINUOUS
100
AcDbLine
 10
441.7077006734515
 20
176.2202144369836
 30
0.0
 11
441.7077006734515
 21
160.5202144369838
 31
0.0
  0
LINE
  5
C52
330
1F
100
AcDbEntity
  8
PEF-150A
  6
CONTINUOUS
100
AcDbLine
 10
440.7077006734517
 20
160.5202144369838
 30
0.0
 11
440.7077006734517
 21
176.2202144369836
 31
0.0
  0
ARC
  5
C53
330
1F
100
AcDbEntity
  8
PEF-150A
  6
CONTINUOUS
100
AcDbCircle
 10
443.3409096635486
 20
168.3702144369835
 30
0.0
 40
6.633208990097045
100
AcDbArc
 50
159.6253525425365
 51
200.3746474574618
  0
LINE
  5
C54
330
1F
100
AcDbEntity
  8
PEF-150A
  6
CONTINUOUS
100
AcDbLine
 10
436.7077006734517
 20
172.2702144369836
 30
0.0
 11
436.7077006734517
 21
164.4702144369838
 31
0.0
  0
LINE
  5
C55
330
1F
100
AcDbEntity
  8
PEF-150A
  6
CONTINUOUS
100
AcDbLine
 10
435.0077006734515
 20
170.8702144369838
 30
0.0
 11
435.0077006734515
 21
165.8702144369838
 31
0.0
  0
LINE
  5
C56
330
1F
100
AcDbEntity
  8
PEF-150A
  6
CONTINUOUS
100
AcDbLine
 10
440.7077006734517
 20
166.0608144369838
 30
0.0
 11
437.1226998534516
 21
166.0608144369838
 31
0.0
  0
LINE
  5
C57
330
1F
100
AcDbEntity
  8
PEF-150A
  6
CONTINUOUS
100
AcDbLine
 10
440.7077006734517
 20
163.7514144369838
 30
0.0
 11
437.1226998534517
 21
163.7514144369838
 31
0.0
  0
ARC
  5
C58
330
1F
100
AcDbEntity
  8
PEF-150A
  6
CONTINUOUS
100
AcDbCircle
 10
439.1226996816304
 20
164.9061144369838
 30
0.0
 40
2.309400796890267
100
AcDbArc
 50
150.0000094361475
 51
209.9999905638521
  0
LINE
  5
C59
330
1F
100
AcDbEntity
  8
PEF-150A
  6
CONTINUOUS
100
AcDbLine
 10
437.1226998534517
 20
163.7514144369838
 30
0.0
 11
436.7077006734517
 21
164.4702144369838
 31
0.0
  0
LINE
  5
C5A
330
1F
100
AcDbEntity
  8
PEF-150A
  6
CONTINUOUS
100
AcDbLine
 10
435.0077006734518
 20
166.2702144369838
 30
0.0
 11
436.7077006734517
 21
166.2702144369838
 31
0.0
  0
LINE
  5
C5B
330
1F
100
AcDbEntity
  8
PEF-150A
  6
CONTINUOUS
100
AcDbLine
 10
435.0077006734515
 20
165.8702144369838
 30
0.0
 11
436.7077006734517
 21
165.8702144369838
 31
0.0
  0
LINE
  5
C5C
330
1F
100
AcDbEntity
  8
PEF-150A
  6
CONTINUOUS
100
AcDbLine
 10
441.7077006734515
 20
160.5202144369838
 30
0.0
 11
440.7077006734517
 21
160.5202144369838
 31
0.0
  0
LINE
  5
C5D
330
1F
100
AcDbEntity
  8
PEF-150A
  6
CONTINUOUS
100
AcDbLine
 10
440.7077006734517
 20
170.6796144369838
 30
0.0
 11
437.1226998534516
 21
170.6796144369838
 31
0.0
  0
LINE
  5
C5E
330
1F
100
AcDbEntity
  8
PEF-150A
  6
CONTINUOUS
100
AcDbLine
 10
440.7077006734517
 20
172.9890144369838
 30
0.0
 11
437.1226998534517
 21
172.9890144369838
 31
0.0
  0
ARC
  5
C5F
330
1F
100
AcDbEntity
  8
PEF-150A
  6
CONTINUOUS
100
AcDbCircle
 10
439.1226996816304
 20
171.8343144369836
 30
0.0
 40
2.309400796890271
100
AcDbArc
 50
150.0000094361475
 51
209.9999905638521
  0
LINE
  5
C60
330
1F
100
AcDbEntity
  8
PEF-150A
  6
CONTINUOUS
100
AcDbLine
 10
437.1226998534517
 20
172.9890144369838
 30
0.0
 11
436.7077006734517
 21
172.2702144369836
 31
0.0
  0
LINE
  5
C61
330
1F
100
AcDbEntity
  8
PEF-150A
  6
CONTINUOUS
100
AcDbLine
 10
435.0077006734515
 20
170.4702144369838
 30
0.0
 11
436.7077006734517
 21
170.4702144369838
 31
0.0
  0
LINE
  5
C62
330
1F
100
AcDbEntity
  8
PEF-150A
  6
CONTINUOUS
100
AcDbLine
 10
436.7077006734517
 20
170.8702144369838
 30
0.0
 11
435.0077006734515
 21
170.8702144369838
 31
0.0
  0
LINE
  5
C63
330
1F
100
AcDbEntity
  8
PEF-150A
  6
CONTINUOUS
100
AcDbLine
 10
424.7077006734516
 20
182.798785865555
 30
0.0
 11
439.9905433859262
 21
180.6155226209156
 31
0.0
  0
ARC
  5
C64
330
1F
100
AcDbEntity
  8
PEF-150A
  6
CONTINUOUS
100
AcDbCircle
 10
426.707700673452
 20
184.533376668945
 30
0.0
 40
2.0
100
AcDbArc
 50
180.0
 51
261.8698976458452
  0
ARC
  5
C65
330
1F
100
AcDbEntity
  8
PEF-150A
  6
CONTINUOUS
100
AcDbCircle
 10
426.707700673452
 20
184.533376668945
 30
0.0
 40
2.0
100
AcDbArc
 50
180.0
 51
261.8698976458452
  0
ARC
  5
C66
330
1F
100
AcDbEntity
  8
PEF-150A
  6
CONTINUOUS
100
AcDbCircle
 10
439.7077006734517
 20
178.6356236335935
 30
0.0
 40
2.0
100
AcDbArc
 50
0.0
 51
81.86989764584197
  0
LINE
  5
C67
330
1F
100
AcDbEntity
  8
PEF-150A
  6
CONTINUOUS
100
AcDbLine
 10
440.7077006734517
 20
176.2202144369836
 30
0.0
 11
441.7077006734515
 21
176.2202144369836
 31
0.0
  0
LINE
  5
C9B
330
1F
100
AcDbEntity
  8
PEF-150A
  6
CONTINUOUS
100
AcDbLine
 10
480.4402038486649
 20
154.1700832385576
 30
0.0
 11
478.0815653171558
 21
169.0542493037471
 31
0.0
  0
LINE
  5
C9C
330
1F
100
AcDbEntity
  8
PEF-150A
  6
CONTINUOUS
100
AcDbLine
 10
482.415547968621
 20
154.4831576829865
 30
0.0
 11
479.9671762708618
 21
169.933524131761
 31
0.0
  0
LINE
  5
C9D
330
1F
100
AcDbEntity
  8
PEF-150A
  6
CONTINUOUS
100
AcDbLine
 10
490.2290606418711
 20
158.1266584796139
 30
0.0
 11
479.9671762708618
 21
169.933524131761
 31
0.0
  0
LINE
  5
C9E
330
1F
100
AcDbEntity
  8
PEF-150A
  6
CONTINUOUS
100
AcDbLine
 10
500.1355473135084
 20
152.8247681152724
 30
0.0
 11
493.2483106915633
 21
160.7504208778743
 31
0.0
  0
LINE
  5
C9F
330
1F
100
AcDbEntity
  8
PEF-150A
  6
CONTINUOUS
100
AcDbLine
 10
493.2483106915633
 20
160.7504208778743
 30
0.0
 11
488.7193662557908
 21
156.8148570939056
 31
0.0
  0
LINE
  5
CA0
330
1F
100
AcDbEntity
  8
PEF-150A
  6
CONTINUOUS
100
AcDbLine
 10
464.7077006734515
 20
132.5859431895215
 30
0.0
 11
464.7077006734516
 21
175.8702144369836
 31
0.0
  0
LINE
  5
CA1
330
1F
100
AcDbEntity
  8
PEF-150A
  6
CONTINUOUS
100
AcDbLine
 10
462.4077006734515
 20
175.8702144369836
 30
0.0
 11
462.4077006734515
 21
132.5859431895215
 31
0.0
  0
ARC
  5
CA2
330
1F
100
AcDbEntity
  8
PEF-150A
  6
CONTINUOUS
100
AcDbCircle
 10
484.0118888807106
 20
138.0302135880844
 30
0.0
 40
1.999999999999965
100
AcDbArc
 50
9.010000000001401
 51
189.0099999999995
  0
LINE
  5
CA3
330
1F
100
AcDbEntity
  8
PEF-150A
  6
CONTINUOUS
100
AcDbLine
 10
486.1353640424844
 20
142.1930331639496
 30
0.0
 11
485.1334931728413
 21
144.2830177084315
 31
0.0
  0
LINE
  5
CA4
330
1F
100
AcDbEntity
  8
PEF-150A
  6
CONTINUOUS
100
AcDbLine
 10
486.03523086772
 20
144.4260002639831
 30
0.0
 11
480.1092647321971
 21
143.486359183231
 31
0.0
  0
LINE
  5
CA5
330
1F
100
AcDbEntity
  8
PEF-150A
  6
CONTINUOUS
100
AcDbLine
 10
484.3908589764043
 20
154.796441001148
 30
0.0
 11
486.03523086772
 21
144.4260002639831
 31
0.0
  0
LINE
  5
CA7
330
1F
100
AcDbEntity
  8
PEF-150A
  6
HIDDEN
100
AcDbLine
 10
462.4077006734514
 20
136.5859431895215
 30
0.0
 11
464.7077006734512
 21
136.5859431895215
 31
0.0
  0
LINE
  5
CA8
330
1F
100
AcDbEntity
  8
PEF-150A
  6
HIDDEN
100
AcDbLine
 10
462.4077006734515
 20
157.7280788132526
 30
0.0
 11
464.7077006734515
 21
157.7280788132525
 31
0.0
  0
LINE
  5
CA9
330
1F
100
AcDbEntity
  8
PEF-150A
  6
CONTINUOUS
100
AcDbLine
 10
462.4077006734515
 20
132.5859431895215
 30
0.0
 11
464.7077006734515
 21
132.5859431895215
 31
0.0
  0
LINE
  5
CAA
330
1F
100
AcDbEntity
  8
PEF-150A
  6
CONTINUOUS
100
AcDbLine
 10
449.7077006734518
 20
135.3321552141094
 30
0.0
 11
448.7077006734518
 21
134.3321552141094
 31
0.0
  0
LINE
  5
CAB
330
1F
100
AcDbEntity
  8
PEF-150A
  6
CONTINUOUS
100
AcDbLine
 10
480.8199289246845
 20
137.7273815807635
 30
0.0
 11
480.7048092739081
 21
141.3319461723762
 31
0.0
  0
LINE
  5
CAC
330
1F
100
AcDbEntity
  8
PEF-150A
  6
CONTINUOUS
100
AcDbLine
 10
482.8196010694965
 20
132.7786947815644
 30
0.0
 11
481.6344078423917
 21
132.590766565414
 31
0.0
  0
LINE
  5
CAD
330
1F
100
AcDbEntity
  8
PEF-150A
  6
CONTINUOUS
100
AcDbLine
 10
480.8199289246845
 20
137.7273815807635
 30
0.0
 11
481.6344078423917
 21
132.590766565414
 31
0.0
  0
LINE
  5
CAE
330
1F
100
AcDbEntity
  8
PEF-150A
  6
CONTINUOUS
100
AcDbLine
 10
482.0365668355363
 20
137.7169998945003
 30
0.0
 11
482.8196010694963
 21
132.7786947815647
 31
0.0
  0
LINE
  5
CAF
330
1F
100
AcDbEntity
  8
PEF-150A
  6
CONTINUOUS
100
AcDbLine
 10
480.1092647321971
 20
143.486359183231
 30
0.0
 11
478.4648928408813
 21
153.856799920396
 31
0.0
  0
LINE
  5
CB0
330
1F
100
AcDbEntity
  8
PEF-150A
  6
CONTINUOUS
100
AcDbLine
 10
480.7048092739081
 20
141.3319461723762
 30
0.0
 11
481.0110024270755
 21
143.6293417387829
 31
0.0
  0
LINE
  5
CB1
330
1F
100
AcDbEntity
  8
PEF-150A
  6
CONTINUOUS
100
AcDbLine
 10
478.4648928408813
 20
153.856799920396
 30
0.0
 11
484.3908589764043
 21
154.796441001148
 31
0.0
  0
LINE
  5
CB2
330
1F
100
AcDbEntity
  8
PEF-150A
  6
CONTINUOUS
100
AcDbLine
 10
499.2594999015235
 20
144.3806336094644
 30
0.0
 11
502.6708383338193
 21
140.4549540729219
 31
0.0
  0
LINE
  5
CB3
330
1F
100
AcDbEntity
  8
PEF-150A
  6
CONTINUOUS
100
AcDbLine
 10
503.5766272209738
 20
141.2420668297158
 30
0.0
 11
500.2969907343334
 21
145.0161871928596
 31
0.0
  0
LINE
  5
CB4
330
1F
100
AcDbEntity
  8
PEF-150A
  6
CONTINUOUS
100
AcDbLine
 10
487.1409594692427
 20
138.7296654002309
 30
0.0
 11
486.1353640424844
 21
142.1930331639496
 31
0.0
  0
LINE
  5
CB5
330
1F
100
AcDbEntity
  8
PEF-150A
  6
CONTINUOUS
100
AcDbLine
 10
487.1409594692427
 20
138.7296654002309
 30
0.0
 11
487.9554383869495
 21
133.593050384883
 31
0.0
  0
LINE
  5
CB6
330
1F
100
AcDbEntity
  8
PEF-150A
  6
CONTINUOUS
100
AcDbLine
 10
487.9554383869495
 20
133.593050384883
 30
0.0
 11
486.7702451598446
 21
133.4051221687325
 31
0.0
  0
LINE
  5
CB7
330
1F
100
AcDbEntity
  8
PEF-150A
  6
CONTINUOUS
100
AcDbLine
 10
486.7702451598451
 20
133.4051221687325
 30
0.0
 11
485.9872109258849
 21
138.3434272816684
 31
0.0
  0
LINE
  5
CB8
330
1F
100
AcDbEntity
  8
PEF-150A
  6
CONTINUOUS
100
AcDbLine
 10
502.6708383338193
 20
140.4549540729219
 30
0.0
 11
503.5766272209738
 21
141.2420668297158
 31
0.0
  0
LINE
  5
CB9
330
1F
100
AcDbEntity
  8
PEF-150A
  6
CONTINUOUS
100
AcDbLine
 10
497.2527905523268
 20
147.3771742844645
 30
0.0
 11
496.2957596873343
 21
149.4880680665068
 31
0.0
  0
LINE
  5
CBA
330
1F
100
AcDbEntity
  8
PEF-150A
  6
CONTINUOUS
100
AcDbLine
 10
495.6066028777359
 20
148.8892043313039
 30
0.0
 11
500.1355473135084
 21
152.8247681152724
 31
0.0
  0
LINE
  5
CBB
330
1F
100
AcDbEntity
  8
PEF-150A
  6
CONTINUOUS
100
AcDbLine
 10
488.7193662557908
 20
156.8148570939056
 30
0.0
 11
495.6066028777359
 21
148.8892043313039
 31
0.0
  0
LINE
  5
CBC
330
1F
100
AcDbEntity
  8
PEF-150A
  6
CONTINUOUS
100
AcDbLine
 10
504.0903739663465
 20
148.5785683123654
 30
0.0
 11
501.403114776229
 21
150.9837245389399
 31
0.0
  0
ARC
  5
CBD
330
1F
100
AcDbEntity
  8
PEF-150A
  6
CONTINUOUS
100
AcDbCircle
 10
501.806638879591
 20
146.3280417875158
 30
0.0
 40
2.000000000000019
100
AcDbArc
 50
40.98999999999874
 51
220.9899999999985
  0
LINE
  5
CBE
330
1F
100
AcDbEntity
  8
PEF-150A
  6
CONTINUOUS
100
AcDbLine
 10
499.2594999015235
 20
144.3806336094644
 30
0.0
 11
497.2527905523268
 21
147.3771742844645
 31
0.0
  0
LINE
  5
CBF
330
1F
100
AcDbEntity
  8
PEF-150A
  6
CONTINUOUS
100
AcDbLine
 10
504.0903739663465
 20
148.5785683123654
 30
0.0
 11
507.5017123986436
 21
144.6528887758219
 31
0.0
  0
LINE
  5
CC0
330
1F
100
AcDbEntity
  8
PEF-150A
  6
CONTINUOUS
100
AcDbLine
 10
503.3162870248483
 20
147.639896382172
 30
0.0
 11
506.5959235114891
 21
143.8657760190283
 31
0.0
  0
LINE
  5
CC1
330
1F
100
AcDbEntity
  8
PEF-150A
  6
CONTINUOUS
100
AcDbLine
 10
506.5959235114891
 20
143.8657760190281
 30
0.0
 11
507.5017123986436
 21
144.6528887758219
 31
0.0
  0
LINE
  5
CC2
330
1F
100
AcDbEntity
  8
PEF-150A
  6
CONTINUOUS
100
AcDbLine
 10
501.403114776229
 20
150.9837245389399
 30
0.0
 11
499.44639050391
 21
152.2259043800699
 31
0.0
  0
LINE
  5
CC4
330
1F
100
AcDbEntity
  8
PEF-150A
  6
CONTINUOUS
100
AcDbLine
 10
491.7386163054835
 20
159.4386194921658
 30
0.0
 11
481.8527872245673
 21
170.8127989597748
 31
0.0
  0
LINE
  5
CC7
330
1F
100
AcDbEntity
  8
PEF-150A
  6
CONTINUOUS
100
AcDbLine
 10
465.5680869465931
 20
206.7279747945714
 30
0.0
 11
473.3324284018419
 21
190.077290810591
 31
0.0
  0
LINE
  5
CC8
330
1F
100
AcDbEntity
  8
PEF-150A
  6
CONTINUOUS
100
AcDbLine
 10
461.0365480114098
 20
204.6148834858678
 30
0.0
 11
468.8008894666586
 21
187.9641995018875
 31
0.0
  0
LINE
  5
CC9
330
1F
100
AcDbEntity
  8
PEF-150A
  6
CONTINUOUS
100
AcDbLine
 10
464.7077006734516
 20
175.8702144369836
 30
0.0
 11
462.4077006734515
 21
175.8702144369836
 31
0.0
  0
LINE
  5
CCA
330
1F
100
AcDbEntity
  8
PEF-150A
  6
CONTINUOUS
100
AcDbLine
 10
453.5077006734516
 20
162.3702144369835
 30
0.0
 11
460.9077006734517
 21
162.3702144369834
 31
0.0
  0
LINE
  5
CCB
330
1F
100
AcDbEntity
  8
PEF-150A
  6
CONTINUOUS
100
AcDbLine
 10
453.5077006734517
 20
174.3702144369836
 30
0.0
 11
460.9077006734517
 21
174.3702144369836
 31
0.0
  0
LINE
  5
CCC
330
1F
100
AcDbEntity
  8
PEF-150A
  6
CONTINUOUS
100
AcDbLine
 10
452.0077006734516
 20
160.8702144369835
 30
0.0
 11
452.0077006734516
 21
175.8702144369836
 31
0.0
  0
LINE
  5
CCD
330
1F
100
AcDbEntity
  8
PEF-150A
  6
CONTINUOUS
100
AcDbLine
 10
449.7077006734516
 20
175.8702144369836
 30
0.0
 11
449.7077006734516
 21
160.8702144369835
 31
0.0
  0
ARC
  5
CD0
330
1F
100
AcDbEntity
  8
PEF-150A
  6
CONTINUOUS
100
AcDbCircle
 10
453.5077006734516
 20
160.8702144369835
 30
0.0
 40
1.5
100
AcDbArc
 50
90.0
 51
180.0
  0
LINE
  5
CD1
330
1F
100
AcDbEntity
  8
PEF-150A
  6
CONTINUOUS
100
AcDbLine
 10
449.7077006734516
 20
160.8702144369835
 30
0.0
 11
452.0077006734516
 21
160.8702144369835
 31
0.0
  0
ARC
  5
CD2
330
1F
100
AcDbEntity
  8
PEF-150A
  6
CONTINUOUS
100
AcDbCircle
 10
453.5077006734518
 20
175.8702144369836
 30
0.0
 40
1.5
100
AcDbArc
 50
179.9999999999983
 51
270.0
  0
LINE
  5
CD3
330
1F
100
AcDbEntity
  8
PEF-150A
  6
CONTINUOUS
100
AcDbLine
 10
452.0077006734516
 20
175.8702144369836
 30
0.0
 11
449.7077006734516
 21
175.8702144369836
 31
0.0
  0
ARC
  5
CD4
330
1F
100
AcDbEntity
  8
PEF-150A
  6
CONTINUOUS
100
AcDbCircle
 10
460.9077006734517
 20
160.8702144369835
 30
0.0
 40
1.5
100
AcDbArc
 50
0.0
 51
90.0
  0
ARC
  5
CD5
330
1F
100
AcDbEntity
  8
PEF-150A
  6
CONTINUOUS
100
AcDbCircle
 10
460.9077006734517
 20
175.8702144369836
 30
0.0
 40
1.5
100
AcDbArc
 50
270.0
 51
0.0
  0
LINE
  5
CD6
330
1F
100
AcDbEntity
  8
PEF-150A
  6
CONTINUOUS
100
AcDbLine
 10
474.6821545563054
 20
187.1827937315515
 30
0.0
 11
482.2329457384532
 21
170.9900697861129
 31
0.0
  0
LINE
  5
CD7
330
1F
100
AcDbEntity
  8
PEF-150A
  6
CONTINUOUS
100
AcDbLine
 10
470.1506156211221
 20
185.069702422848
 30
0.0
 11
477.7014068032701
 21
168.8769784774094
 31
0.0
  0
LINE
  5
CD8
330
1F
100
AcDbEntity
  8
PEF-150A
  6
CONTINUOUS
100
AcDbLine
 10
482.2329457384532
 20
170.9900697861129
 30
0.0
 11
477.7014068032701
 21
168.8769784774094
 31
0.0
  0
LINE
  5
CD9
330
1F
100
AcDbEntity
  8
PEF-150A
  6
CONTINUOUS
100
AcDbLine
 10
470.4769888897778
 20
188.2264310232421
 30
0.0
 11
469.3101258044356
 21
188.670555165608
 31
0.0
  0
LINE
  5
CDA
330
1F
100
AcDbEntity
  8
PEF-150A
  6
CONTINUOUS
100
AcDbLine
 10
469.3101258044356
 20
188.670555165608
 30
0.0
 11
468.8008894666586
 21
187.9641995018875
 31
0.0
  0
LINE
  5
CDB
330
1F
100
AcDbEntity
  8
PEF-150A
  6
CONTINUOUS
100
AcDbLine
 10
473.8826166707962
 20
186.3589710234235
 30
0.0
 11
472.5768413133895
 21
186.4422443001171
 31
0.0
  0
LINE
  5
CDC
330
1F
100
AcDbEntity
  8
PEF-150A
  6
CONTINUOUS
100
AcDbLine
 10
474.6821545563054
 20
187.1827937315515
 30
0.0
 11
473.8826166707962
 21
186.3589710234235
 31
0.0
  0
LINE
  5
CDD
330
1F
100
AcDbEntity
  8
PEF-150A
  6
CONTINUOUS
100
AcDbLine
 10
471.2271151589264
 20
189.3367413791569
 30
0.0
 11
470.4769888897778
 21
188.2264310232421
 31
0.0
  0
LINE
  5
CDE
330
1F
100
AcDbEntity
  8
PEF-150A
  6
CONTINUOUS
100
AcDbLine
 10
472.5328905163327
 20
189.2534681024633
 30
0.0
 11
471.2271151589264
 21
189.3367413791569
 31
0.0
  0
LINE
  5
CDF
330
1F
100
AcDbEntity
  8
PEF-150A
  6
CONTINUOUS
100
AcDbLine
 10
473.3324284018419
 20
190.077290810591
 30
0.0
 11
472.5328905163327
 21
189.2534681024633
 31
0.0
  0
LINE
  5
CE0
330
1F
100
AcDbEntity
  8
PEF-150A
  6
CONTINUOUS
100
AcDbLine
 10
470.6598519588991
 20
185.7760580865684
 30
0.0
 11
470.150615621122
 21
185.069702422848
 31
0.0
  0
LINE
  5
CE1
330
1F
100
AcDbEntity
  8
PEF-150A
  6
CONTINUOUS
100
AcDbLine
 10
471.8267150442411
 20
185.3319339442024
 30
0.0
 11
470.6598519588991
 21
185.7760580865684
 31
0.0
  0
LINE
  5
CE2
330
1F
100
AcDbEntity
  8
PEF-150A
  6
CONTINUOUS
100
AcDbLine
 10
472.5768413133895
 20
186.4422443001171
 30
0.0
 11
471.8267150442411
 21
185.3319339442024
 31
0.0
  0
ARC
  5
CE3
330
1F
100
AcDbEntity
  8
PEF-150A
  6
CONTINUOUS
100
AcDbCircle
 10
449.7077006734518
 20
199.332155214109
 30
0.0
 40
17.50000000000006
100
AcDbArc
 50
24.99999999999792
 51
90.0
  0
ARC
  5
CE4
330
1F
100
AcDbEntity
  8
PEF-150A
  6
CONTINUOUS
100
AcDbCircle
 10
449.7077006734518
 20
199.332155214109
 30
0.0
 40
12.5
100
AcDbArc
 50
24.99999999999792
 51
90.0
  0
LINE
  5
CED
330
1F
100
AcDbEntity
  8
PEF-150A
  6
HIDDEN
100
AcDbLine
 10
424.7077006734518
 20
292.8321552141095
 30
0.0
 11
449.7077006734518
 21
292.8321552141095
 31
0.0
  0
LINE
  5
CEE
330
1F
100
AcDbEntity
  8
PEF-150A
  6
CONTINUOUS
100
AcDbLine
 10
425.2077006734518
 20
294.3321552141095
 30
0.0
 11
448.7077006734518
 21
294.3321552141095
 31
0.0
  0
LINE
  5
CEF
330
1F
100
AcDbEntity
  8
PEF-150A
  6
CENTER2
100
AcDbLine
 10
432.9630624938284
 20
260.2940959912353
 30
0.0
 11
466.5293027942926
 21
260.2940959912355
 31
0.0
  0
LINE
  5
CF5
330
1F
100
AcDbEntity
  8
PEF-150A
  6
CONTINUOUS
100
AcDbLine
 10
346.7077006734518
 20
291.8321552141096
 30
0.0
 11
424.7077006734518
 21
291.8321552141096
 31
0.0
  0
LINE
  5
CF6
330
1F
100
AcDbEntity
  8
PEF-150A
  6
CONTINUOUS
100
AcDbLine
 10
424.7077006734518
 20
293.4321552141096
 30
0.0
 11
346.7077006734518
 21
293.4321552141097
 31
0.0
  0
LINE
  5
D05
330
1F
100
AcDbEntity
  8
PEF-150A
  6
CONTINUOUS
100
AcDbLine
 10
344.3654862229045
 20
139.332155214109
 30
0.0
 11
344.3654862229045
 21
289.0321552141092
 31
0.0
  0
ARC
  5
D1C
330
1F
100
AcDbEntity
  8
PEF-150A
  6
CONTINUOUS
100
AcDbCircle
 10
336.3654862229043
 20
281.0475852771316
 30
0.0
 40
6.416312616755249
100
AcDbArc
 50
68.71252545399554
 51
111.2874745460044
  0
ARC
  5
D1D
330
1F
100
AcDbEntity
  8
PEF-150A
  6
CONTINUOUS
100
AcDbCircle
 10
336.3654862229043
 20
292.5055990944473
 30
0.0
 40
6.416312616755254
100
AcDbArc
 50
248.7125254539955
 51
291.2874745460043
  0
ARC
  5
D1E
330
1F
100
AcDbEntity
  8
PEF-150A
  6
CONTINUOUS
100
AcDbCircle
 10
336.3654862229043
 20
281.9194378509726
 30
0.0
 40
5.429078117059033
100
AcDbArc
 50
68.85323055056551
 51
111.1467694494375
  0
ARC
  5
D1F
330
1F
100
AcDbEntity
  8
PEF-150A
  6
CONTINUOUS
100
AcDbCircle
 10
336.3654862229043
 20
291.6337465206061
 30
0.0
 40
5.429078117059018
100
AcDbArc
 50
248.8532305505655
 51
291.1467694494374
  0
LINE
  5
D20
330
1F
100
AcDbEntity
  8
PEF-150A
  6
CONTINUOUS
100
AcDbLine
 10
328.3654862229043
 20
283.0707906384466
 30
0.0
 11
344.3654862229045
 21
283.0707906384469
 31
0.0
  0
LINE
  5
D22
330
1F
100
AcDbEntity
  8
PEF-150A
  6
CENTER2
100
AcDbLine
 10
332.2800788807013
 20
286.7765921857893
 30
0.0
 11
340.7013969636146
 21
286.7765921857893
 31
0.0
  0
LINE
  5
D23
330
1F
100
AcDbEntity
  8
PEF-150A
  6
HIDDEN
100
AcDbLine
 10
328.3654862229043
 20
287.8321552141091
 30
0.0
 11
344.3654862229042
 21
287.8321552141093
 31
0.0
  0
LINE
  5
D24
330
1F
100
AcDbEntity
  8
PEF-150A
  6
CONTINUOUS
100
AcDbLine
 10
328.6654862229045
 20
289.3321552141093
 30
0.0
 11
344.0654862229044
 21
289.3321552141093
 31
0.0
  0
ARC
  5
D25
330
1F
100
AcDbEntity
  8
PEF-150A
  6
CONTINUOUS
100
AcDbCircle
 10
334.1332824437053
 20
286.7765921857893
 30
0.0
 40
0.2677962208007889
100
AcDbArc
 50
111.287474546008
 51
248.712525453992
  0
ARC
  5
D26
330
1F
100
AcDbEntity
  8
PEF-150A
  6
CONTINUOUS
100
AcDbCircle
 10
334.4867097744562
 20
286.7765921857893
 30
0.0
 40
0.2212235515519281
100
AcDbArc
 50
111.1467694494344
 51
248.8532305505624
  0
LINE
  5
D27
330
1F
100
AcDbEntity
  8
PEF-150A
  6
CONTINUOUS
100
AcDbLine
 10
328.6654862229045
 20
289.3321552141093
 30
0.0
 11
328.3654862229045
 21
289.0321552141092
 31
0.0
  0
POINT
  5
D28
330
1F
100
AcDbEntity
  8
PEF-150A
  6
CONTINUOUS
100
AcDbPoint
 10
339.5042900213555
 20
278.3321552141093
 30
0.0
  0
LINE
  5
D2A
330
1F
100
AcDbEntity
  8
PEF-150A
  6
CENTER2
100
AcDbLine
 10
336.3654862229043
 20
294.2117934891455
 30
0.0
 11
336.3654862229043
 21
282.0000505338018
 31
0.0
  0
ARC
  5
D2B
330
1F
100
AcDbEntity
  8
PEF-150A
  6
CONTINUOUS
100
AcDbCircle
 10
338.5976900021037
 20
286.7765921857893
 30
0.0
 40
0.2677962208007757
100
AcDbArc
 50
291.2874745460078
 51
68.71252545399197
  0
ARC
  5
D2C
330
1F
100
AcDbEntity
  8
PEF-150A
  6
CONTINUOUS
100
AcDbCircle
 10
338.2442626713523
 20
286.7765921857893
 30
0.0
 40
0.2212235515519251
100
AcDbArc
 50
291.1467694494447
 51
68.85323055055882
  0
LINE
  5
D2D
330
1F
100
AcDbEntity
  8
PEF-150A
  6
CONTINUOUS
100
AcDbLine
 10
344.3654862229045
 20
289.0321552141092
 30
0.0
 11
344.0654862229044
 21
289.3321552141093
 31
0.0
  0
LINE
  5
D2E
330
1F
100
AcDbEntity
  8
PEF-150A
  6
CONTINUOUS
100
AcDbLine
 10
346.7077006734518
 20
293.4321552141097
 30
0.0
 11
346.7077006734518
 21
135.2321552141094
 31
0.0
  0
LINE
  5
D31
330
1F
100
AcDbEntity
  8
PEF-150A
  6
CENTER2
100
AcDbLine
 10
417.2077006734515
 20
298.1985613397337
 30
0.0
 11
417.2077006734515
 21
284.1806996345418
 31
0.0
  0
LINE
  5
D32
330
1F
100
AcDbEntity
  8
PEF-150A
  6
CENTER2
100
AcDbLine
 10
417.2077006734518
 20
285.5258078471715
 30
0.0
 11
417.2077006734522
 21
298.1985613397338
 31
0.0
  0
LINE
  5
D68
330
1F
100
AcDbEntity
  8
PEF-150A
  6
CONTINUOUS
100
AcDbLine
 10
441.7077006734518
 20
250.0286867946253
 30
0.0
 11
441.7077006734518
 21
284.9160821239678
 31
0.0
  0
ARC
  5
D6A
330
1F
100
AcDbEntity
  8
PEF-150A
  6
CONTINUOUS
100
AcDbCircle
 10
439.1226996816307
 20
263.7581959912353
 30
0.0
 40
2.309400796890239
100
AcDbArc
 50
150.0000094361475
 51
209.9999905638521
  0
LINE
  5
D6B
330
1F
100
AcDbEntity
  8
PEF-150A
  6
CONTINUOUS
100
AcDbLine
 10
436.7077006734517
 20
256.3940959912354
 30
0.0
 11
436.7077006734517
 21
264.1940959912353
 31
0.0
  0
LINE
  5
D6C
330
1F
100
AcDbEntity
  8
PEF-150A
  6
CONTINUOUS
100
AcDbLine
 10
441.707700673452
 20
252.4440959912353
 30
0.0
 11
441.707700673452
 21
268.1440959912355
 31
0.0
  0
LINE
  5
D6D
330
1F
100
AcDbEntity
  8
PEF-150A
  6
CONTINUOUS
100
AcDbLine
 10
440.7077006734517
 20
268.1440959912354
 30
0.0
 11
440.7077006734517
 21
252.4440959912353
 31
0.0
  0
ARC
  5
D8F
330
1F
100
AcDbEntity
  8
PEF-150A
  6
CONTINUOUS
100
AcDbCircle
 10
426.7077006734518
 20
244.1309337592735
 30
0.0
 40
2.000000000000003
100
AcDbArc
 50
98.13010235415482
 51
180.0
  0
ARC
  5
D90
330
1F
100
AcDbEntity
  8
PEF-150A
  6
CONTINUOUS
100
AcDbCircle
 10
426.7077006734518
 20
244.1309337592735
 30
0.0
 40
2.000000000000003
100
AcDbArc
 50
98.13010235415482
 51
180.0
  0
LINE
  5
D93
330
1F
100
AcDbEntity
  8
PEF-150A
  6
CONTINUOUS
100
AcDbLine
 10
424.7077006734518
 20
245.8655245626637
 30
0.0
 11
439.9905433859266
 21
248.0487878073029
 31
0.0
  0
ARC
  5
D94
330
1F
100
AcDbEntity
  8
PEF-150A
  6
CONTINUOUS
100
AcDbCircle
 10
439.7077006734518
 20
250.0286867946253
 30
0.0
 40
2.0
100
AcDbArc
 50
278.1301023541548
 51
0.0
  0
LINE
  5
D95
330
1F
100
AcDbEntity
  8
PEF-150A
  6
CONTINUOUS
100
AcDbLine
 10
440.7077006734517
 20
252.4440959912353
 30
0.0
 11
441.707700673452
 21
252.4440959912353
 31
0.0
  0
LINE
  5
D96
330
1F
100
AcDbEntity
  8
PEF-150A
  6
CONTINUOUS
100
AcDbLine
 10
440.7077006734517
 20
257.9846959912355
 30
0.0
 11
437.1226998534518
 21
257.9846959912354
 31
0.0
  0
LINE
  5
D97
330
1F
100
AcDbEntity
  8
PEF-150A
  6
CONTINUOUS
100
AcDbLine
 10
440.7077006734517
 20
262.6034959912353
 30
0.0
 11
437.122699853452
 21
262.6034959912355
 31
0.0
  0
LINE
  5
D98
330
1F
100
AcDbEntity
  8
PEF-150A
  6
CONTINUOUS
100
AcDbLine
 10
440.7077006734517
 20
255.6752959912353
 30
0.0
 11
437.122699853452
 21
255.6752959912353
 31
0.0
  0
ARC
  5
D99
330
1F
100
AcDbEntity
  8
PEF-150A
  6
CONTINUOUS
100
AcDbCircle
 10
439.1226996816306
 20
256.8299959912355
 30
0.0
 40
2.309400796890288
100
AcDbArc
 50
150.0000094361475
 51
209.9999905638521
  0
ARC
  5
D9A
330
1F
100
AcDbEntity
  8
PEF-150A
  6
CONTINUOUS
100
AcDbCircle
 10
443.3409096635489
 20
260.2940959912353
 30
0.0
 40
6.633208990097043
100
AcDbArc
 50
159.6253525425365
 51
200.3746474574618
  0
LINE
  5
D9B
330
1F
100
AcDbEntity
  8
PEF-150A
  6
CONTINUOUS
100
AcDbLine
 10
437.122699853452
 20
255.6752959912353
 30
0.0
 11
436.7077006734517
 21
256.3940959912354
 31
0.0
  0
LINE
  5
D9C
330
1F
100
AcDbEntity
  8
PEF-150A
  6
CONTINUOUS
100
AcDbLine
 10
435.0077006734518
 20
258.1940959912353
 30
0.0
 11
436.7077006734517
 21
258.1940959912353
 31
0.0
  0
LINE
  5
D9D
330
1F
100
AcDbEntity
  8
PEF-150A
  6
CONTINUOUS
100
AcDbLine
 10
435.0077006734521
 20
262.3940959912354
 30
0.0
 11
436.7077006734521
 21
262.3940959912354
 31
0.0
  0
LINE
  5
D9E
330
1F
100
AcDbEntity
  8
PEF-150A
  6
CONTINUOUS
100
AcDbLine
 10
435.0077006734518
 20
262.7940959912354
 30
0.0
 11
436.7077006734517
 21
262.7940959912354
 31
0.0
  0
LINE
  5
D9F
330
1F
100
AcDbEntity
  8
PEF-150A
  6
CONTINUOUS
100
AcDbLine
 10
435.0077006734518
 20
257.7940959912353
 30
0.0
 11
435.0077006734518
 21
262.7940959912354
 31
0.0
  0
LINE
  5
DA0
330
1F
100
AcDbEntity
  8
PEF-150A
  6
CONTINUOUS
100
AcDbLine
 10
436.7077006734517
 20
257.7940959912353
 30
0.0
 11
435.0077006734518
 21
257.7940959912353
 31
0.0
  0
LINE
  5
DA2
330
1F
100
AcDbEntity
  8
PEF-150A
  6
CONTINUOUS
100
AcDbLine
 10
424.7077006734518
 20
291.8321552141093
 30
0.0
 11
408.7077006734518
 21
291.8321552141093
 31
0.0
  0
ARC
  5
DBF
330
1F
100
AcDbEntity
  8
PEF-150A
  6
CONTINUOUS
100
AcDbCircle
 10
417.2077006734522
 20
285.5258078471715
 30
0.0
 40
10.40634736693798
100
AcDbArc
 50
67.38712560451961
 51
112.6128743954804
  0
LINE
  5
DC0
330
1F
100
AcDbEntity
  8
PEF-150A
  6
CONTINUOUS
100
AcDbLine
 10
413.0577006734518
 20
293.4321552141095
 30
0.0
 11
413.2064314014458
 21
295.1321552141095
 31
0.0
  0
LINE
  5
DC1
330
1F
100
AcDbEntity
  8
PEF-150A
  6
CONTINUOUS
100
AcDbLine
 10
421.3577006734523
 20
293.4321552141095
 30
0.0
 11
421.2089699454582
 21
295.1321552141095
 31
0.0
  0
LINE
  5
DC2
330
1F
100
AcDbEntity
  8
PEF-150A
  6
CONTINUOUS
100
AcDbLine
 10
440.7077006734517
 20
264.9128959912354
 30
0.0
 11
437.122699853452
 21
264.9128959912355
 31
0.0
  0
LINE
  5
DC3
330
1F
100
AcDbEntity
  8
PEF-150A
  6
CONTINUOUS
100
AcDbLine
 10
437.122699853452
 20
264.9128959912355
 30
0.0
 11
436.7077006734517
 21
264.1940959912353
 31
0.0
  0
LINE
  5
DC4
330
1F
100
AcDbEntity
  8
PEF-150A
  6
CONTINUOUS
100
AcDbLine
 10
441.707700673452
 20
268.1440959912355
 30
0.0
 11
440.7077006734517
 21
268.1440959912354
 31
0.0
  0
LINE
  5
DC5
330
1F
100
AcDbEntity
  8
PEF-150A
  6
CONTINUOUS
100
AcDbLine
 10
424.7077006734518
 20
288.0977177979725
 30
0.0
 11
439.8639554253253
 21
286.9099688942026
 31
0.0
  0
LINE
  5
DC6
330
1F
100
AcDbEntity
  8
PEF-150A
  6
CONTINUOUS
100
AcDbLine
 10
425.2077006734518
 20
294.3321552141095
 30
0.0
 11
424.7077006734518
 21
293.8321552141093
 31
0.0
  0
ARC
  5
DC7
330
1F
100
AcDbEntity
  8
PEF-150A
  6
CONTINUOUS
100
AcDbCircle
 10
439.7077006734518
 20
284.9160821239678
 30
0.0
 40
2.0
100
AcDbArc
 50
0.0
 51
85.51906466550384
  0
LINE
  5
DD0
330
1F
100
AcDbEntity
  8
PEF-150A
  6
CONTINUOUS
100
AcDbLine
 10
452.0077006734518
 20
267.7940959912354
 30
0.0
 11
452.0077006734518
 21
252.7940959912354
 31
0.0
  0
LINE
  5
DD1
330
1F
100
AcDbEntity
  8
PEF-150A
  6
CONTINUOUS
100
AcDbLine
 10
449.7077006734518
 20
252.7940959912354
 30
0.0
 11
449.7077006734518
 21
267.7940959912354
 31
0.0
  0
LINE
  5
DD2
330
1F
100
AcDbEntity
  8
PEF-150A
  6
CONTINUOUS
100
AcDbLine
 10
464.7077006734518
 20
296.0783672386972
 30
0.0
 11
464.7077006734518
 21
252.7940959912355
 31
0.0
  0
LINE
  5
DD3
330
1F
100
AcDbEntity
  8
PEF-150A
  6
CONTINUOUS
100
AcDbLine
 10
462.4077006734518
 20
252.7940959912354
 30
0.0
 11
462.4077006734518
 21
296.0783672386972
 31
0.0
  0
LINE
  5
DD4
330
1F
100
AcDbEntity
  8
PEF-150A
  6
CONTINUOUS
100
AcDbLine
 10
464.7077006734518
 20
252.7940959912355
 30
0.0
 11
462.4077006734518
 21
252.7940959912354
 31
0.0
  0
LINE
  5
DD7
330
1F
100
AcDbEntity
  8
PEF-150A
  6
CONTINUOUS
100
AcDbLine
 10
453.5077006734518
 20
254.2940959912353
 30
0.0
 11
460.9077006734518
 21
254.2940959912353
 31
0.0
  0
ARC
  5
DD8
330
1F
100
AcDbEntity
  8
PEF-150A
  6
CONTINUOUS
100
AcDbCircle
 10
453.5077006734518
 20
252.7940959912354
 30
0.0
 40
1.5
100
AcDbArc
 50
90.0
 51
180.0
  0
LINE
  5
DD9
330
1F
100
AcDbEntity
  8
PEF-150A
  6
CONTINUOUS
100
AcDbLine
 10
452.0077006734518
 20
252.7940959912354
 30
0.0
 11
449.7077006734518
 21
252.7940959912354
 31
0.0
  0
ARC
  5
DDA
330
1F
100
AcDbEntity
  8
PEF-150A
  6
CONTINUOUS
100
AcDbCircle
 10
460.9077006734518
 20
252.7940959912354
 30
0.0
 40
1.5
100
AcDbArc
 50
0.0
 51
90.0
  0
LINE
  5
DDC
330
1F
100
AcDbEntity
  8
PEF-150A
  6
HIDDEN
100
AcDbLine
 10
462.4077006734518
 20
292.0783672386975
 30
0.0
 11
464.7077006734518
 21
292.0783672386976
 31
0.0
  0
LINE
  5
DDD
330
1F
100
AcDbEntity
  8
PEF-150A
  6
HIDDEN
100
AcDbLine
 10
462.407700673452
 20
270.9362316149665
 30
0.0
 11
464.7077006734518
 21
270.9362316149665
 31
0.0
  0
LINE
  5
DDE
330
1F
100
AcDbEntity
  8
PEF-150A
  6
CONTINUOUS
100
AcDbLine
 10
462.4077006734518
 20
296.0783672386972
 30
0.0
 11
464.7077006734518
 21
296.0783672386972
 31
0.0
  0
LINE
  5
DDF
330
1F
100
AcDbEntity
  8
PEF-150A
  6
CONTINUOUS
100
AcDbLine
 10
453.5077006734518
 20
266.2940959912355
 30
0.0
 11
460.9077006734518
 21
266.2940959912353
 31
0.0
  0
ARC
  5
DE1
330
1F
100
AcDbEntity
  8
PEF-150A
  6
CONTINUOUS
100
AcDbCircle
 10
453.5077006734521
 20
267.7940959912354
 30
0.0
 40
1.5
100
AcDbArc
 50
180.0
 51
270.0
  0
LINE
  5
DE2
330
1F
100
AcDbEntity
  8
PEF-150A
  6
CONTINUOUS
100
AcDbLine
 10
449.7077006734518
 20
267.7940959912354
 30
0.0
 11
452.0077006734518
 21
267.7940959912354
 31
0.0
  0
ARC
  5
DE3
330
1F
100
AcDbEntity
  8
PEF-150A
  6
CONTINUOUS
100
AcDbCircle
 10
460.9077006734518
 20
267.7940959912354
 30
0.0
 40
1.499999999999992
100
AcDbArc
 50
270.0
 51
0.0
  0
LINE
  5
DE4
330
1F
100
AcDbEntity
  8
PEF-150A
  6
CONTINUOUS
100
AcDbLine
 10
448.7077006734518
 20
294.3321552141095
 30
0.0
 11
449.7077006734518
 21
293.3321552141094
 31
0.0
  0
TEXT
  5
1106
330
1F
100
AcDbEntity
  8
PEF-150A
100
AcDbText
 10
266.6365141756354
 20
134.0110719731434
 30
0.0
 40
4.0
  1
PEF-150AR
100
AcDbText
  0
ENDSEC
  0
SECTION
  2
OBJECTS
  0
DICTIONARY
  5
C
330
0
100
AcDbDictionary
  3
ACAD_GROUP
350
D
  3
ACAD_LAYOUT
350
1A
  3
ACAD_MLINESTYLE
350
17
  3
ACAD_PLOTSETTINGS
350
19
  3
ACAD_PLOTSTYLENAME
350
E
  3
ACADDIM
350
453
  3
DWGPROPS
350
1292
  3
ACDBHEADERROUNDTRIPXREC
350
12ED
  0
DICTIONARY
  5
12B7
330
1F
100
AcDbDictionary
280
     1
  3
ACAD_LAYOUTSELFREF
360
130E
  0
DICTIONARY
  5
12B5
330
1B
100
AcDbDictionary
280
     1
  3
ACAD_LAYOUTSELFREF
360
130D
  0
DICTIONARY
  5
D
102
{ACAD_REACTORS
330
C
102
}
330
C
100
AcDbDictionary
  0
DICTIONARY
  5
1A
102
{ACAD_REACTORS
330
C
102
}
330
C
100
AcDbDictionary
  0
DICTIONARY
  5
17
102
{ACAD_REACTORS
330
C
102
}
330
C
100
AcDbDictionary
  3
STANDARD
350
18
  0
DICTIONARY
  5
19
102
{ACAD_REACTORS
330
C
102
}
330
C
100
AcDbDictionary
  0
ACDBDICTIONARYWDFLT
  5
E
102
{ACAD_REACTORS
330
C
102
}
330
C
100
AcDbDictionary
281
     1
  3
Normal
350
F
100
AcDbDictionaryWithDefault
340
F
  0
XRECORD
  5
453
102
{ACAD_REACTORS
330
C
102
}
330
C
100
AcDbXrecord
 90
   990106
  3

 60
     0
 61
     0
 62
     4
 63
     4
 64
     1
 65
     0
 66
     0
 67
     3
 68
     1
 69
     0
 70
     0
 71
     0
 72
     0
 40
0.0
170
     1
340
0
  0
XRECORD
  5
1292
102
{ACAD_REACTORS
330
C
102
}
330
C
100
AcDbXrecord
  1
DWGPROPS COOKIE
  2

  3

  4

  6

  7

  8
한신
  9

300
=
301
=
302
=
303
=
304
=
305
=
306
=
307
=
308
=
309
=
 40
0.026625
 41
2451745.464040854
 42
2451814.600610879
  1

 90
        0
  0
DICTIONARY
  5
12ED
102
{ACAD_REACTORS
330
C
102
}
330
C
100
AcDbDictionary
  3
TSTACKALIGN
350
12EE
  3
TSTACKSIZE
350
12EF
  3
HYPERLINKBASE
350
12F0
  3
STYLESHEET
350
12F1
  3
LAYOUTDICT
350
12F2
  3
PLOTSETDICT
350
12F3
  3
PLOTSTYLNAMDICT
350
12F4
  3
LWETCUNION
350
12F5
  3
INSUNITS
350
12F6
  3
CEPSNTYPE
350
12F7
  3
FINGERPRINTGUID
350
12F8
  3
VERSIONGUID
350
12F9
  3
PSVPSCALE
350
12FA
  3
PUCSORTHOREF
350
12FB
  3
PUCSORTHOVIEW
350
12FC
  3
PUCSBASE
350
12FD
  3
PUCSORGTOP
350
12FE
  3
PUCSORGBOTTOM
350
12FF
  3
PUCSORGLEFT
350
1300
  3
PUCSORGRIGHT
350
1301
  3
PUCSORGFRONT
350
1302
  3
PUCSORGBACK
350
1303
  3
UCSORTHOREF
350
1304
  3
UCSORTHOVIEW
350
1305
  3
UCSBASE
350
1306
  3
UCSORGTOP
350
1307
  3
UCSORGBOTTOM
350
1308
  3
UCSORGLEFT
350
1309
  3
UCSORGRIGHT
350
130A
  3
UCSORGFRONT
350
130B
  3
UCSORGBACK
350
130C
  0
XRECORD
  5
130E
102
{ACAD_REACTORS
330
12B7
102
}
330
12B7
100
AcDbXrecord
340
1F
  0
XRECORD
  5
130D
102
{ACAD_REACTORS
330
12B5
102
}
330
12B5
100
AcDbXrecord
340
1B
  0
MLINESTYLE
  5
18
102
{ACAD_REACTORS
330
17
102
}
330
17
100
AcDbMlineStyle
  2
STANDARD
 70
     0
  3

 62
   256
 51
90.0
 52
90.0
 71
     2
 49
0.5
 62
   256
  6
BYLAYER
 49
-0.5
 62
   256
  6
BYLAYER
  0
ACDBPLACEHOLDER
  5
F
102
{ACAD_REACTORS
330
E
102
}
330
E
100
AcDbPlaceHolder
280
     0
  0
XRECORD
  5
12EE
102
{ACAD_REACTORS
330
12ED
102
}
330
12ED
100
AcDbXrecord
 90
        1
  0
XRECORD
  5
12EF
102
{ACAD_REACTORS
330
12ED
102
}
330
12ED
100
AcDbXrecord
 90
       70
  0
XRECORD
  5
12F0
102
{ACAD_REACTORS
330
12ED
102
}
330
12ED
100
AcDbXrecord
  1

  0
XRECORD
  5
12F1
102
{ACAD_REACTORS
330
12ED
102
}
330
12ED
100
AcDbXrecord
  1

  0
XRECORD
  5
12F2
102
{ACAD_REACTORS
330
12ED
102
}
330
12ED
100
AcDbXrecord
340
1A
  0
XRECORD
  5
12F3
102
{ACAD_REACTORS
330
12ED
102
}
330
12ED
100
AcDbXrecord
340
19
  0
XRECORD
  5
12F4
102
{ACAD_REACTORS
330
12ED
102
}
330
12ED
100
AcDbXrecord
340
E
  0
XRECORD
  5
12F5
102
{ACAD_REACTORS
330
12ED
102
}
330
12ED
100
AcDbXrecord
 90
    10781
  0
XRECORD
  5
12F6
102
{ACAD_REACTORS
330
12ED
102
}
330
12ED
100
AcDbXrecord
 90
        1
  0
XRECORD
  5
12F7
102
{ACAD_REACTORS
330
12ED
102
}
330
12ED
100
AcDbXrecord
 90
        0
  0
XRECORD
  5
12F8
102
{ACAD_REACTORS
330
12ED
102
}
330
12ED
100
AcDbXrecord
  1
{FDEAD576-A652-11D2-9A35-0060089B3A3F}
  0
XRECORD
  5
12F9
102
{ACAD_REACTORS
330
12ED
102
}
330
12ED
100
AcDbXrecord
  1
{3955F356-C311-4FE2-8072-3F30A6BDA3A0}
  0
XRECORD
  5
12FA
102
{ACAD_REACTORS
330
12ED
102
}
330
12ED
100
AcDbXrecord
 40
0.0
  0
XRECORD
  5
12FB
102
{ACAD_REACTORS
330
12ED
102
}
330
12ED
100
AcDbXrecord
340
0
  0
XRECORD
  5
12FC
102
{ACAD_REACTORS
330
12ED
102
}
330
12ED
100
AcDbXrecord
 70
     0
  0
XRECORD
  5
12FD
102
{ACAD_REACTORS
330
12ED
102
}
330
12ED
100
AcDbXrecord
340
0
  0
XRECORD
  5
12FE
102
{ACAD_REACTORS
330
12ED
102
}
330
12ED
100
AcDbXrecord
 10
0.0
 20
0.0
 30
0.0
  0
XRECORD
  5
12FF
102
{ACAD_REACTORS
330
12ED
102
}
330
12ED
100
AcDbXrecord
 10
0.0
 20
0.0
 30
0.0
  0
XRECORD
  5
1300
102
{ACAD_REACTORS
330
12ED
102
}
330
12ED
100
AcDbXrecord
 10
0.0
 20
0.0
 30
0.0
  0
XRECORD
  5
1301
102
{ACAD_REACTORS
330
12ED
102
}
330
12ED
100
AcDbXrecord
 10
0.0
 20
0.0
 30
0.0
  0
XRECORD
  5
1302
102
{ACAD_REACTORS
330
12ED
102
}
330
12ED
100
AcDbXrecord
 10
0.0
 20
0.0
 30
0.0
  0
XRECORD
  5
1303
102
{ACAD_REACTORS
330
12ED
102
}
330
12ED
100
AcDbXrecord
 10
0.0
 20
0.0
 30
0.0
  0
XRECORD
  5
1304
102
{ACAD_REACTORS
330
12ED
102
}
330
12ED
100
AcDbXrecord
340
0
  0
XRECORD
  5
1305
102
{ACAD_REACTORS
330
12ED
102
}
330
12ED
100
AcDbXrecord
 70
     0
  0
XRECORD
  5
1306
102
{ACAD_REACTORS
330
12ED
102
}
330
12ED
100
AcDbXrecord
340
0
  0
XRECORD
  5
1307
102
{ACAD_REACTORS
330
12ED
102
}
330
12ED
100
AcDbXrecord
 10
0.0
 20
0.0
 30
0.0
  0
XRECORD
  5
1308
102
{ACAD_REACTORS
330
12ED
102
}
330
12ED
100
AcDbXrecord
 10
0.0
 20
0.0
 30
0.0
  0
XRECORD
  5
1309
102
{ACAD_REACTORS
330
12ED
102
}
330
12ED
100
AcDbXrecord
 10
0.0
 20
0.0
 30
0.0
  0
XRECORD
  5
130A
102
{ACAD_REACTORS
330
12ED
102
}
330
12ED
100
AcDbXrecord
 10
0.0
 20
0.0
 30
0.0
  0
XRECORD
  5
130B
102
{ACAD_REACTORS
330
12ED
102
}
330
12ED
100
AcDbXrecord
 10
0.0
 20
0.0
 30
0.0
  0
XRECORD
  5
130C
102
{ACAD_REACTORS
330
12ED
102
}
330
12ED
100
AcDbXrecord
 10
0.0
 20
0.0
 30
0.0
  0
ENDSEC
  0
EOF
