  0
SECTION
  2
HEADER
  9
$ACADVER
  1
AC1014
  9
$ACADMAINTVER
 70
     9
  9
$DWGCODEPAGE
  3
ANSI_949
  9
$INSBASE
 10
0.0
 20
0.0
 30
0.0
  9
$EXTMIN
 10
65.69631703891196
 20
141.5485632615851
 30
-0.0000000000000053
  9
$EXTMAX
 10
480.3754499396379
 20
302.0483086558837
 30
0.0000000000000099
  9
$LIMMIN
 10
0.0
 20
0.0
  9
$LIMMAX
 10
420.0
 20
297.0
  9
$ORTHOMODE
 70
     0
  9
$REGENMODE
 70
     1
  9
$FILLMODE
 70
     1
  9
$QTEXTMODE
 70
     0
  9
$MIRRTEXT
 70
     1
  9
$DRAGMODE
 70
     2
  9
$LTSCALE
 40
8.0
  9
$OSMODE
 70
    37
  9
$ATTMODE
 70
     1
  9
$TEXTSIZE
 40
4.0
  9
$TRACEWID
 40
0.05
  9
$TEXTSTYLE
  7
STANDARD
  9
$CLAYER
  8
0
  9
$CELTYPE
  6
BYLAYER
  9
$CECOLOR
 62
   256
  9
$CELTSCALE
 40
1.0
  9
$DELOBJ
 70
     1
  9
$DISPSILH
 70
     0
  9
$DIMSCALE
 40
1.3
  9
$DIMASZ
 40
2.299999999999998
  9
$DIMEXO
 40
0.5
  9
$DIMDLI
 40
8.0
  9
$DIMRND
 40
0.0
  9
$DIMDLE
 40
0.0
  9
$DIMEXE
 40
1.0
  9
$DIMTP
 40
0.0
  9
$DIMTM
 40
0.000000001
  9
$DIMTXT
 40
2.299999999999998
  9
$DIMCEN
 40
0.09
  9
$DIMTSZ
 40
0.0
  9
$DIMTOL
 70
     0
  9
$DIMLIM
 70
     0
  9
$DIMTIH
 70
     0
  9
$DIMTOH
 70
     0
  9
$DIMSE1
 70
     0
  9
$DIMSE2
 70
     0
  9
$DIMTAD
 70
     1
  9
$DIMZIN
 70
     8
  9
$DIMBLK
  1

  9
$DIMASO
 70
     1
  9
$DIMSHO
 70
     1
  9
$DIMPOST
  1

  9
$DIMAPOST
  1

  9
$DIMALT
 70
     0
  9
$DIMALTD
 70
     1
  9
$DIMALTF
 40
25.4
  9
$DIMLFAC
 40
1.0
  9
$DIMTOFL
 70
     1
  9
$DIMTVP
 40
0.0
  9
$DIMTIX
 70
     0
  9
$DIMSOXD
 70
     0
  9
$DIMSAH
 70
     0
  9
$DIMBLK1
  1

  9
$DIMBLK2
  1

  9
$DIMSTYLE
  2
STANDARD
  9
$DIMCLRD
 70
     5
  9
$DIMCLRE
 70
     5
  9
$DIMCLRT
 70
     3
  9
$DIMTFAC
 40
0.7
  9
$DIMGAP
 40
0.5
  9
$DIMJUST
 70
     0
  9
$DIMSD1
 70
     0
  9
$DIMSD2
 70
     0
  9
$DIMTOLJ
 70
     1
  9
$DIMTZIN
 70
     0
  9
$DIMALTZ
 70
     0
  9
$DIMALTTZ
 70
     0
  9
$DIMFIT
 70
     3
  9
$DIMUPT
 70
     1
  9
$DIMUNIT
 70
     2
  9
$DIMDEC
 70
     1
  9
$DIMTDEC
 70
     1
  9
$DIMALTU
 70
     2
  9
$DIMALTTD
 70
     1
  9
$DIMTXSTY
  7
STANDARD
  9
$DIMAUNIT
 70
     0
  9
$LUNITS
 70
     2
  9
$LUPREC
 70
     4
  9
$SKETCHINC
 40
0.1
  9
$FILLETRAD
 40
0.5
  9
$AUNITS
 70
     0
  9
$AUPREC
 70
     0
  9
$MENU
  1
.
  9
$ELEVATION
 40
0.0
  9
$PELEVATION
 40
0.0
  9
$THICKNESS
 40
0.0
  9
$LIMCHECK
 70
     0
  9
$BLIPMODE
 70
     0
  9
$CHAMFERA
 40
0.5
  9
$CHAMFERB
 40
0.5
  9
$CHAMFERC
 40
1.0
  9
$CHAMFERD
 40
0.0
  9
$SKPOLY
 70
     0
  9
$TDCREATE
 40
2451736.638740857
  9
$TDUPDATE
 40
2452761.345886863
  9
$TDINDWG
 40
0.0845138542
  9
$TDUSRTIMER
 40
0.0845134954
  9
$USRTIMER
 70
     1
  9
$ANGBASE
 50
0.0
  9
$ANGDIR
 70
     0
  9
$PDMODE
 70
     0
  9
$PDSIZE
 40
0.0
  9
$PLINEWID
 40
0.0
  9
$COORDS
 70
     2
  9
$SPLFRAME
 70
     0
  9
$SPLINETYPE
 70
     6
  9
$SPLINESEGS
 70
     8
  9
$ATTDIA
 70
     0
  9
$ATTREQ
 70
     1
  9
$HANDLING
 70
 12289
  9
$HANDSEED
  5
1039
  9
$SURFTAB1
 70
     6
  9
$SURFTAB2
 70
     6
  9
$SURFTYPE
 70
     6
  9
$SURFU
 70
     6
  9
$SURFV
 70
     6
  9
$UCSNAME
  2

  9
$UCSORG
 10
0.0
 20
0.0
 30
0.0
  9
$UCSXDIR
 10
1.0
 20
0.0
 30
0.0
  9
$UCSYDIR
 10
0.0
 20
1.0
 30
0.0
  9
$PUCSNAME
  2

  9
$PUCSORG
 10
0.0
 20
0.0
 30
0.0
  9
$PUCSXDIR
 10
1.0
 20
0.0
 30
0.0
  9
$PUCSYDIR
 10
0.0
 20
1.0
 30
0.0
  9
$USERI1
 70
     0
  9
$USERI2
 70
     0
  9
$USERI3
 70
     0
  9
$USERI4
 70
     0
  9
$USERI5
 70
     0
  9
$USERR1
 40
0.0
  9
$USERR2
 40
0.0
  9
$USERR3
 40
0.0
  9
$USERR4
 40
0.0
  9
$USERR5
 40
0.0
  9
$WORLDVIEW
 70
     1
  9
$SHADEDGE
 70
     3
  9
$SHADEDIF
 70
    70
  9
$TILEMODE
 70
     1
  9
$MAXACTVP
 70
    64
  9
$PINSBASE
 10
0.0
 20
0.0
 30
0.0
  9
$PLIMCHECK
 70
     0
  9
$PEXTMIN
 10
1.000000000000000E+20
 20
1.000000000000000E+20
 30
1.000000000000000E+20
  9
$PEXTMAX
 10
-1.000000000000000E+20
 20
-1.000000000000000E+20
 30
-1.000000000000000E+20
  9
$PLIMMIN
 10
0.0
 20
0.0
  9
$PLIMMAX
 10
12.0
 20
9.0
  9
$UNITMODE
 70
     0
  9
$VISRETAIN
 70
     1
  9
$PLINEGEN
 70
     0
  9
$PSLTSCALE
 70
     1
  9
$TREEDEPTH
 70
  3020
  9
$PICKSTYLE
 70
     1
  9
$CMLSTYLE
  2
STANDARD
  9
$CMLJUST
 70
     0
  9
$CMLSCALE
 40
1.0
  9
$PROXYGRAPHICS
 70
     1
  9
$MEASUREMENT
 70
     0
  0
ENDSEC
  0
SECTION
  2
CLASSES
  0
CLASS
  1
ACDBDICTIONARYWDFLT
  2
AcDbDictionaryWithDefault
  3
AutoCAD 2000
 90
        0
280
     0
281
     0
  0
CLASS
  1
ACDBPLACEHOLDER
  2
AcDbPlaceHolder
  3
AutoCAD 2000
 90
        0
280
     0
281
     0
  0
CLASS
  1
LAYOUT
  2
AcDbLayout
  3
AutoCAD 2000
 90
        0
280
     0
281
     0
  0
CLASS
  1
LONG_TRANSACTION
  2
AcDbLongTransaction
  3
AutoCAD 2000
 90
        0
280
     0
281
     0
  0
CLASS
  1
LWPOLYLINE
  2
AcDbPolyline
  3
AutoCAD 2000
 90
        0
280
     0
281
     1
  0
CLASS
  1
HATCH
  2
AcDbHatch
  3
AutoCAD 2000
 90
        0
280
     0
281
     1
  0
CLASS
  1
XRECORD
  2
AcDbXrecord
  3
AutoCAD 2000
 90
        0
280
     0
281
     0
  0
CLASS
  1
LONG_TRANSACTION
  2
AcDbLongTransaction
  3
AutoCAD 2000
 90
        0
280
     0
281
     0
  0
CLASS
  1
LWPOLYLINE
  2
AcDbPolyline
  3
AutoCAD 2000
 90
        0
280
     0
281
     1
  0
CLASS
  1
HATCH
  2
AcDbHatch
  3
AutoCAD 2000
 90
        0
280
     0
281
     1
  0
CLASS
  1
XRECORD
  2
AcDbXrecord
  3
AutoCAD 2000
 90
        0
280
     0
281
     0
  0
CLASS
  1
LONG_TRANSACTION
  2
AcDbLongTransaction
  3
AutoCAD 2000
 90
        0
280
     0
281
     0
  0
CLASS
  1
LWPOLYLINE
  2
AcDbPolyline
  3
AutoCAD 2000
 90
        0
280
     0
281
     1
  0
CLASS
  1
HATCH
  2
AcDbHatch
  3
AutoCAD 2000
 90
        0
280
     0
281
     1
  0
CLASS
  1
XRECORD
  2
AcDbXrecord
  3
AutoCAD 2000
 90
        0
280
     0
281
     0
  0
ENDSEC
  0
SECTION
  2
TABLES
  0
TABLE
  2
VPORT
  5
8
330
0
100
AcDbSymbolTable
 70
     2
  0
VPORT
  5
1016
330
8
100
AcDbSymbolTableRecord
100
AcDbViewportTableRecord
  2
*ACTIVE
 70
     0
 10
0.0
 20
0.0
 11
1.0
 21
1.0
 12
273.0358834892749
 22
221.7984359587344
 13
0.0
 23
0.0
 14
1.0
 24
1.0
 15
5.0
 25
5.0
 16
0.0
 26
0.0
 36
1.0
 17
0.0
 27
0.0
 37
0.0
 40
281.1921797898239
 41
1.481743227326266
 42
50.0
 43
0.0
 44
0.0
 50
0.0
 51
0.0
 71
     0
 72
  2000
 73
     1
 74
     3
 75
     0
 76
     0
 77
     0
 78
     0
  0
ENDTAB
  0
TABLE
  2
LTYPE
  5
5
330
0
100
AcDbSymbolTable
 70
     3
  0
LTYPE
  5
14
330
5
100
AcDbSymbolTableRecord
100
AcDbLinetypeTableRecord
  2
BYBLOCK
 70
     0
  3

 72
    65
 73
     0
 40
0.0
  0
LTYPE
  5
15
330
5
100
AcDbSymbolTableRecord
100
AcDbLinetypeTableRecord
  2
BYLAYER
 70
     0
  3

 72
    65
 73
     0
 40
0.0
  0
LTYPE
  5
16
330
5
100
AcDbSymbolTableRecord
100
AcDbLinetypeTableRecord
  2
CONTINUOUS
 70
     0
  3
Solid line
 72
    65
 73
     0
 40
0.0
  0
LTYPE
  5
45E
330
5
100
AcDbSymbolTableRecord
100
AcDbLinetypeTableRecord
  2
CENTER2
 70
     0
  3
Center (.5x) ___ _ ___ _ ___ _ ___ _ ___ _ ___
 72
    65
 73
     4
 40
1.125
 49
0.75
 74
     0
 49
-0.125
 74
     0
 49
0.125
 74
     0
 49
-0.125
 74
     0
  0
LTYPE
  5
45F
330
5
100
AcDbSymbolTableRecord
100
AcDbLinetypeTableRecord
  2
HIDDEN
 70
     0
  3
Hidden __ __ __ __ __ __ __ __ __ __ __ __ __ _
 72
    65
 73
     2
 40
0.375
 49
0.25
 74
     0
 49
-0.125
 74
     0
  0
ENDTAB
  0
TABLE
  2
LAYER
  5
2
330
0
100
AcDbSymbolTable
 70
     2
  0
LAYER
  5
10
330
2
100
AcDbSymbolTableRecord
100
AcDbLayerTableRecord
  2
0
 70
     0
 62
     7
  6
CONTINUOUS
  0
LAYER
  5
1015
330
2
100
AcDbSymbolTableRecord
100
AcDbLayerTableRecord
  2
PEF-120A
 70
     0
 62
     7
  6
CONTINUOUS
  0
ENDTAB
  0
TABLE
  2
STYLE
  5
3
330
0
100
AcDbSymbolTable
 70
     1
  0
STYLE
  5
11
330
3
100
AcDbSymbolTableRecord
100
AcDbTextStyleTableRecord
  2
STANDARD
 70
     0
 40
0.0
 41
1.0
 50
0.0
 71
     0
 42
4.0
  3
txt.shx
  4
whgtxt.shx
  0
ENDTAB
  0
TABLE
  2
VIEW
  5
6
330
0
100
AcDbSymbolTable
 70
     0
  0
ENDTAB
  0
TABLE
  2
UCS
  5
7
330
0
100
AcDbSymbolTable
 70
     0
  0
ENDTAB
  0
TABLE
  2
APPID
  5
9
330
0
100
AcDbSymbolTable
 70
     1
  0
APPID
  5
12
330
9
100
AcDbSymbolTableRecord
100
AcDbRegAppTableRecord
  2
ACAD
 70
     0
  0
ENDTAB
  0
TABLE
  2
DIMSTYLE
  5
A
330
0
100
AcDbSymbolTable
 70
     1
  0
DIMSTYLE
105
27
330
A
100
AcDbSymbolTableRecord
100
AcDbDimStyleTableRecord
  2
STANDARD
 70
     0
  3

  4

  5

  6

  7

 40
1.3
 41
2.299999999999998
 42
0.5
 43
8.0
 44
1.0
 45
0.0
 46
0.0
 47
0.0
 48
0.000000001
140
2.299999999999998
141
0.09
142
0.0
143
25.4
144
1.0
145
0.0
146
0.7
147
0.5
 71
     0
 72
     0
 73
     0
 74
     0
 75
     0
 76
     0
 77
     1
 78
     8
170
     0
171
     1
172
     1
173
     0
174
     0
175
     0
176
     5
177
     5
178
     3
270
     2
271
     1
272
     1
273
     2
274
     1
340
11
275
     0
280
     0
281
     0
282
     0
283
     1
284
     0
285
     0
286
     0
287
     3
288
     1
  0
ENDTAB
  0
TABLE
  2
BLOCK_RECORD
  5
1
330
0
100
AcDbSymbolTable
 70
     0
  0
BLOCK_RECORD
  5
1F
102
{ACAD_XDICTIONARY
360
FE0
102
}
330
1
100
AcDbSymbolTableRecord
100
AcDbBlockTableRecord
  2
*MODEL_SPACE
  0
BLOCK_RECORD
  5
1B
102
{ACAD_XDICTIONARY
360
FDE
102
}
330
1
100
AcDbSymbolTableRecord
100
AcDbBlockTableRecord
  2
*PAPER_SPACE
  0
ENDTAB
  0
ENDSEC
  0
SECTION
  2
BLOCKS
  0
BLOCK
  5
20
330
1F
100
AcDbEntity
  8
0
100
AcDbBlockBegin
  2
*MODEL_SPACE
 70
     0
 10
0.0
 20
0.0
 30
0.0
  3
*MODEL_SPACE
  1

  0
ENDBLK
  5
21
330
1F
100
AcDbEntity
  8
0
100
AcDbBlockEnd
  0
BLOCK
  5
1C
330
1B
100
AcDbEntity
 67
     1
  8
0
100
AcDbBlockBegin
  2
*PAPER_SPACE
 70
     0
 10
0.0
 20
0.0
 30
0.0
  3
*PAPER_SPACE
  1

  0
ENDBLK
  5
1D
330
1B
100
AcDbEntity
 67
     1
  8
0
100
AcDbBlockEnd
  0
ENDSEC
  0
SECTION
  2
ENTITIES
  0
LINE
  5
997
330
1F
100
AcDbEntity
  8
PEF-120A
  6
CONTINUOUS
100
AcDbLine
 10
395.5607650690763
 20
287.4033045073811
 30
0.0
 11
325.5607650690762
 21
287.4033045073818
 31
0.0
  0
LINE
  5
998
330
1F
100
AcDbEntity
  8
PEF-120A
  6
CONTINUOUS
100
AcDbLine
 10
325.5607650690762
 20
285.8033045073818
 30
0.0
 11
395.5607650690761
 21
285.8033045073813
 31
0.0
  0
LINE
  5
9A5
330
1F
100
AcDbEntity
  8
PEF-120A
  6
CENTER2
100
AcDbLine
 10
313.0683284039446
 20
223.3033045073816
 30
0.0
 11
435.3533403492254
 21
223.303304507381
 31
0.0
  0
LINE
  5
9A6
330
1F
100
AcDbEntity
  8
PEF-120A
  6
CONTINUOUS
100
AcDbLine
 10
325.5607650690754
 20
159.2033045073818
 30
0.0
 11
395.5607650690753
 21
159.2033045073813
 31
0.0
  0
LINE
  5
9A7
330
1F
100
AcDbEntity
  8
PEF-120A
  6
CONTINUOUS
100
AcDbLine
 10
325.5607650690753
 20
160.8033045073819
 30
0.0
 11
395.5607650690753
 21
160.8033045073813
 31
0.0
  0
ARC
  5
9AB
330
1F
100
AcDbEntity
  8
PEF-120A
  6
CONTINUOUS
100
AcDbCircle
 10
76.39318419122315
 20
290.4784487201031
 30
0.0
 40
7.49999999999999
100
AcDbArc
 50
44.99999999999971
 51
224.9999999999996
  0
LINE
  5
9AD
330
1F
100
AcDbEntity
  8
PEF-120A
  6
CENTER2
100
AcDbLine
 10
143.5683284039451
 20
148.2782399634914
 30
0.0
 11
143.5683284039451
 21
302.034694352476
 31
0.0
  0
ARC
  5
9AE
330
1F
100
AcDbEntity
  8
PEF-120A
  6
CONTINUOUS
100
AcDbCircle
 10
196.6013369929358
 20
276.3363130963724
 30
0.0
 40
3.499999999999988
100
AcDbArc
 50
135.0000000000002
 51
315.0000000000003
  0
LINE
  5
9AF
330
1F
100
AcDbEntity
  8
PEF-120A
  6
CONTINUOUS
100
AcDbLine
 10
183.8269578981179
 20
274.1685357193526
 30
0.0
 11
205.4401717577676
 21
295.7817495790024
 31
0.0
  0
LINE
  5
9B0
330
1F
100
AcDbEntity
  8
PEF-120A
  6
HIDDEN
100
AcDbLine
 10
187.7625022281041
 20
256.8908766137424
 30
0.0
 11
194.4335596159161
 21
263.5619340015542
 31
0.0
  0
ARC
  5
9B1
330
1F
100
AcDbEntity
  8
PEF-120A
  6
CONTINUOUS
100
AcDbCircle
 10
193.5683284039449
 20
228.0380297144075
 30
0.0
 40
10.75774402019199
100
AcDbArc
 50
75.27005290089497
 51
104.7299470991049
  0
ARC
  5
9B2
330
1F
100
AcDbEntity
  8
PEF-120A
  6
CONTINUOUS
100
AcDbCircle
 10
193.5683284039448
 20
232.827263751649
 30
0.0
 40
9.413026017668693
100
AcDbArc
 50
69.603598791582
 51
110.396401208418
  0
ARC
  5
9B3
330
1F
100
AcDbEntity
  8
PEF-120A
  6
CONTINUOUS
100
AcDbCircle
 10
193.5683284039448
 20
234.3800277089128
 30
0.0
 40
8.015553424762076
100
AcDbArc
 50
69.60359879158186
 51
110.3964012084181
  0
LINE
  5
9B4
330
1F
100
AcDbEntity
  8
PEF-120A
  6
CONTINUOUS
100
AcDbLine
 10
199.9690347897594
 20
247.1941774726413
 30
0.0
 11
182.4592013692051
 21
247.1941774726413
 31
0.0
  0
LINE
  5
9B5
330
1F
100
AcDbEntity
  8
PEF-120A
  6
CONTINUOUS
100
AcDbLine
 10
199.9875711422719
 20
250.1941774726414
 30
0.0
 11
182.4592013692051
 21
250.1941774726414
 31
0.0
  0
LINE
  5
9B6
330
1F
100
AcDbEntity
  8
PEF-120A
  6
CONTINUOUS
100
AcDbLine
 10
175.568328403945
 20
238.4422203440063
 30
0.0
 11
199.5683284039452
 21
238.4422203440063
 31
0.0
  0
LINE
  5
9B7
330
1F
100
AcDbEntity
  8
PEF-120A
  6
CONTINUOUS
100
AcDbLine
 10
175.568328403945
 20
235.3512576998811
 30
0.0
 11
199.5683284039452
 21
235.3512576998811
 31
0.0
  0
LINE
  5
9B8
330
1F
100
AcDbEntity
  8
PEF-120A
  6
CENTER2
100
AcDbLine
 10
170.8224484916298
 20
250.557424595066
 30
0.0
 11
219.2773054156146
 21
299.012281519051
 31
0.0
  0
LINE
  5
9B9
330
1F
100
AcDbEntity
  8
PEF-120A
  6
CONTINUOUS
100
AcDbLine
 10
174.568328403945
 20
232.7033045073813
 30
0.0
 11
202.8274205333388
 21
232.7033045073811
 31
0.0
  0
LINE
  5
9BA
330
1F
100
AcDbEntity
  8
PEF-120A
  6
CONTINUOUS
100
AcDbLine
 10
175.568328403945
 20
233.2262208820453
 30
0.0
 11
199.5683284039452
 21
233.2262208820453
 31
0.0
  0
LINE
  5
9BB
330
1F
100
AcDbEntity
  8
PEF-120A
  6
CONTINUOUS
100
AcDbLine
 10
199.568328403945
 20
234.3853318735921
 30
0.0
 11
175.568328403945
 21
234.3853318735921
 31
0.0
  0
ARC
  5
9BC
330
1F
100
AcDbEntity
  8
PEF-120A
  6
CONTINUOUS
100
AcDbCircle
 10
196.6013369929359
 20
170.2702959183904
 30
0.0
 40
3.499999999999998
100
AcDbArc
 50
45.0
 51
224.9999999999996
  0
LINE
  5
9BD
330
1F
100
AcDbEntity
  8
PEF-120A
  6
HIDDEN
100
AcDbLine
 10
187.7625022281041
 20
189.7157324010205
 30
0.0
 11
194.4335596159163
 21
183.0446750132083
 31
0.0
  0
LINE
  5
9BE
330
1F
100
AcDbEntity
  8
PEF-120A
  6
CONTINUOUS
100
AcDbLine
 10
159.5298812167538
 20
196.3033045073814
 30
0.0
 11
197.1500417024202
 21
196.303304507381
 31
0.0
  0
LINE
  5
9BF
330
1F
100
AcDbEntity
  8
PEF-120A
  6
CONTINUOUS
100
AcDbLine
 10
183.8269578981179
 20
172.4380732954101
 30
0.0
 11
205.4401717577681
 21
150.8248594357604
 31
0.0
  0
ARC
  5
9C0
330
1F
100
AcDbEntity
  8
PEF-120A
  6
CONTINUOUS
100
AcDbCircle
 10
143.5683284039451
 20
223.3033045073813
 30
0.0
 40
65.0
100
AcDbArc
 50
273.6009751060461
 51
356.3990248939536
  0
LINE
  5
9C1
330
1F
100
AcDbEntity
  8
PEF-120A
  6
CENTER2
100
AcDbLine
 10
170.8224484916298
 20
196.0491844196964
 30
0.0
 11
219.2773054156146
 21
147.5943274957119
 31
0.0
  0
LINE
  5
9C3
330
1F
100
AcDbEntity
  8
PEF-120A
  6
CENTER2
100
AcDbLine
 10
65.73223241538994
 20
223.3033045073813
 30
0.0
 11
223.2043935561399
 21
223.3033045073813
 31
0.0
  0
ARC
  5
9C5
330
1F
100
AcDbEntity
  8
PEF-120A
  6
CONTINUOUS
100
AcDbCircle
 10
143.5683284039451
 20
223.3033045073813
 30
0.0
 40
65.0
100
AcDbArc
 50
3.600975106045879
 51
86.39902489395366
  0
CIRCLE
  5
9C6
330
1F
100
AcDbEntity
  8
PEF-120A
  6
CONTINUOUS
100
AcDbCircle
 10
143.5683284039451
 20
223.3033045073813
 30
0.0
 40
64.1
  0
CIRCLE
  5
9C7
330
1F
100
AcDbEntity
  8
PEF-120A
  6
CONTINUOUS
100
AcDbCircle
 10
143.5683284039451
 20
223.3033045073813
 30
0.0
 40
62.5
  0
ARC
  5
9C8
330
1F
100
AcDbEntity
  8
PEF-120A
  6
CONTINUOUS
100
AcDbCircle
 10
76.39318419122322
 20
156.1281602946593
 30
0.0
 40
7.49999999999999
100
AcDbArc
 50
135.0000000000002
 51
315.0000000000003
  0
LINE
  5
9C9
330
1F
100
AcDbEntity
  8
PEF-120A
  6
CENTER2
100
AcDbLine
 10
116.3142083162602
 20
196.0491844196964
 30
0.0
 11
67.85935139227553
 21
147.5943274957119
 31
0.0
  0
LINE
  5
9CA
330
1F
100
AcDbEntity
  8
PEF-120A
  6
CONTINUOUS
100
AcDbLine
 10
92.70309719197404
 20
183.0446750132083
 30
0.0
 11
71.08988333232412
 21
161.4314611535584
 31
0.0
  0
LINE
  5
9CB
330
1F
100
AcDbEntity
  8
PEF-120A
  6
CONTINUOUS
100
AcDbLine
 10
103.3096989097722
 20
172.43807329541
 30
0.0
 11
81.69648505012242
 21
150.8248594357602
 31
0.0
  0
LINE
  5
9CC
330
1F
100
AcDbEntity
  8
PEF-120A
  6
CONTINUOUS
100
AcDbLine
 10
88.06044608080133
 20
172.745169652543
 30
0.0
 11
73.91831045707033
 21
158.603034028812
 31
0.0
  0
LINE
  5
9CD
330
1F
100
AcDbEntity
  8
PEF-120A
  6
CONTINUOUS
100
AcDbLine
 10
93.01019354910716
 20
167.7954221842373
 30
0.0
 11
78.86805792537626
 21
153.6532865605065
 31
0.0
  0
LINE
  5
9CE
330
1F
100
AcDbEntity
  8
PEF-120A
  6
CENTER2
100
AcDbLine
 10
75.31856796455166
 20
171.3449121450619
 30
0.0
 11
90.87491715065572
 21
155.7885629589579
 31
0.0
  0
ARC
  5
9CF
330
1F
100
AcDbEntity
  8
PEF-120A
  6
CONTINUOUS
100
AcDbCircle
 10
143.5683284039451
 20
223.3033045073813
 30
0.0
 40
65.00000000000001
100
AcDbArc
 50
183.6009751060458
 51
266.3990248939536
  0
ARC
  5
9D0
330
1F
100
AcDbEntity
  8
PEF-120A
  6
CONTINUOUS
100
AcDbCircle
 10
143.5683284039451
 20
223.3033045073813
 30
0.0
 40
60.00000000000002
100
AcDbArc
 50
243.2563160495975
 51
268.5849350833763
  0
ARC
  5
9D1
330
1F
100
AcDbEntity
  8
PEF-120A
  6
CONTINUOUS
100
AcDbCircle
 10
76.39318419122322
 20
156.1281602946593
 30
0.0
 40
3.499999999999993
100
AcDbArc
 50
135.0000000000002
 51
315.0000000000003
  0
ARC
  5
9D2
330
1F
100
AcDbEntity
  8
PEF-120A
  6
CONTINUOUS
100
AcDbCircle
 10
143.5683284039449
 20
167.1096518743191
 30
0.0
 40
10.4063473669379
100
AcDbArc
 50
247.3871256045199
 51
292.6128743954802
  0
LINE
  5
9D3
330
1F
100
AcDbEntity
  8
PEF-120A
  6
CONTINUOUS
100
AcDbLine
 10
139.4183284039447
 20
159.2033045073814
 30
0.0
 11
147.7183284039453
 21
159.2033045073814
 31
0.0
  0
LINE
  5
9D4
330
1F
100
AcDbEntity
  8
PEF-120A
  6
CONTINUOUS
100
AcDbLine
 10
139.4183284039447
 20
159.2033045073814
 30
0.0
 11
139.5670591319388
 21
157.5033045073814
 31
0.0
  0
LINE
  5
9D5
330
1F
100
AcDbEntity
  8
PEF-120A
  6
CONTINUOUS
100
AcDbLine
 10
147.7183284039453
 20
159.2033045073814
 30
0.0
 11
147.5695976759512
 21
157.5033045073814
 31
0.0
  0
ARC
  5
9D6
330
1F
100
AcDbEntity
  8
PEF-120A
  6
CONTINUOUS
100
AcDbCircle
 10
104.6774554386847
 20
262.1941774726415
 30
0.0
 40
11.99999999999999
100
AcDbArc
 50
277.732908198618
 51
0.0
  0
ARC
  5
9D7
330
1F
100
AcDbEntity
  8
PEF-120A
  6
CENTER2
100
AcDbCircle
 10
143.5683284039451
 20
223.3033045073813
 30
0.0
 40
54.99999999999998
100
AcDbArc
 50
122.7995140789381
 51
147.2004859210624
  0
CIRCLE
  5
9D8
330
1F
100
AcDbEntity
  8
PEF-120A
  6
HIDDEN
100
AcDbCircle
 10
104.6774554386847
 20
262.1941774726414
 30
0.0
 40
7.5
  0
LINE
  5
9D9
330
1F
100
AcDbEntity
  8
PEF-120A
  6
CENTER2
100
AcDbLine
 10
116.3142083162602
 20
250.557424595066
 30
0.0
 11
67.85935139227564
 21
299.0122815190508
 31
0.0
  0
LINE
  5
9DA
330
1F
100
AcDbEntity
  8
PEF-120A
  6
CONTINUOUS
100
AcDbLine
 10
127.6067755911362
 20
250.3033045073815
 30
0.0
 11
89.98661510547005
 21
250.3033045073816
 31
0.0
  0
LINE
  5
9DB
330
1F
100
AcDbEntity
  8
PEF-120A
  6
CONTINUOUS
100
AcDbLine
 10
112.5683284039449
 20
213.9033045073815
 30
0.0
 11
84.30923627455115
 21
213.9033045073815
 31
0.0
  0
LINE
  5
9DC
330
1F
100
AcDbEntity
  8
PEF-120A
  6
CONTINUOUS
100
AcDbLine
 10
111.5683284039451
 20
208.1643886707563
 30
0.0
 11
87.56832840394514
 21
208.1643886707563
 31
0.0
  0
LINE
  5
9DD
330
1F
100
AcDbEntity
  8
PEF-120A
  6
CONTINUOUS
100
AcDbLine
 10
111.568328403945
 20
213.3803881327174
 30
0.0
 11
87.56832840394503
 21
213.3803881327175
 31
0.0
  0
LINE
  5
9DE
330
1F
100
AcDbEntity
  8
PEF-120A
  6
CONTINUOUS
100
AcDbLine
 10
87.56832840394503
 20
212.2212771411704
 30
0.0
 11
111.568328403945
 21
212.2212771411704
 31
0.0
  0
LINE
  5
9DF
330
1F
100
AcDbEntity
  8
PEF-120A
  6
CONTINUOUS
100
AcDbLine
 10
111.5683284039451
 20
211.2553513148815
 30
0.0
 11
87.56832840394514
 21
211.2553513148816
 31
0.0
  0
ARC
  5
9E0
330
1F
100
AcDbEntity
  8
PEF-120A
  6
CONTINUOUS
100
AcDbCircle
 10
104.677455438685
 20
184.4124315421213
 30
0.0
 40
12.00000000000001
100
AcDbArc
 50
7.732908198614872
 51
90.0
  0
ARC
  5
9E1
330
1F
100
AcDbEntity
  8
PEF-120A
  6
CENTER2
100
AcDbCircle
 10
143.5683284039451
 20
223.3033045073813
 30
0.0
 40
54.99999999999997
100
AcDbArc
 50
212.7995140789374
 51
248.5593479677596
  0
CIRCLE
  5
9E2
330
1F
100
AcDbEntity
  8
PEF-120A
  6
HIDDEN
100
AcDbCircle
 10
104.677455438685
 20
184.4124315421213
 30
0.0
 40
7.5
  0
ARC
  5
9E3
330
1F
100
AcDbEntity
  8
PEF-120A
  6
CONTINUOUS
100
AcDbCircle
 10
104.677455438685
 20
184.4124315421213
 30
0.0
 40
14.99999999999999
100
AcDbArc
 50
37.55911155391145
 51
90.0
  0
ARC
  5
9E4
330
1F
100
AcDbEntity
  8
PEF-120A
  6
CONTINUOUS
100
AcDbCircle
 10
143.5683284039451
 20
223.3033045073813
 30
0.0
 40
64.99999999999999
100
AcDbArc
 50
93.60097510604635
 51
176.3990248939537
  0
ARC
  5
9E5
330
1F
100
AcDbEntity
  8
PEF-120A
  6
CONTINUOUS
100
AcDbCircle
 10
143.5683284039451
 20
223.3033045073813
 30
0.0
 40
60.0
100
AcDbArc
 50
153.2563160495969
 51
178.584935083376
  0
ARC
  5
9E6
330
1F
100
AcDbEntity
  8
PEF-120A
  6
CONTINUOUS
100
AcDbCircle
 10
85.69394337025967
 20
198.4124315421213
 30
0.0
 40
2.000000000000069
100
AcDbArc
 50
203.2717881843165
 51
260.6610563760741
  0
ARC
  5
9E7
330
1F
100
AcDbEntity
  8
PEF-120A
  6
CONTINUOUS
100
AcDbCircle
 10
90.53531981495428
 20
170.2702959183903
 30
0.0
 40
3.499999999999982
100
AcDbArc
 50
315.0000000000003
 51
135.0000000000002
  0
LINE
  5
9E8
330
1F
100
AcDbEntity
  8
PEF-120A
  6
HIDDEN
100
AcDbLine
 10
109.9807562975842
 20
179.109130683222
 30
0.0
 11
103.3096989097722
 21
172.43807329541
 31
0.0
  0
LINE
  5
9E9
330
1F
100
AcDbEntity
  8
PEF-120A
  6
HIDDEN
100
AcDbLine
 10
99.37415457978602
 20
189.7157324010203
 30
0.0
 11
92.70309719197404
 21
183.0446750132083
 31
0.0
  0
LINE
  5
9EA
330
1F
100
AcDbEntity
  8
PEF-120A
  6
CONTINUOUS
100
AcDbLine
 10
109.1388736451491
 20
185.6078649476406
 30
0.0
 11
105.8728888442047
 21
188.8738497485852
 31
0.0
  0
LINE
  5
9EB
330
1F
100
AcDbEntity
  8
PEF-120A
  6
CONTINUOUS
100
AcDbLine
 10
105.8728888442047
 20
188.8738497485852
 30
0.0
 11
101.4114706377405
 21
187.6784163430657
 31
0.0
  0
CIRCLE
  5
9EC
330
1F
100
AcDbEntity
  8
PEF-120A
  6
CONTINUOUS
100
AcDbCircle
 10
104.677455438685
 20
184.4124315421213
 30
0.0
 40
3.900000000000004
  0
LINE
  5
9ED
330
1F
100
AcDbEntity
  8
PEF-120A
  6
CONTINUOUS
100
AcDbLine
 10
103.4820220331654
 20
179.9510133356573
 30
0.0
 11
107.9434402396294
 21
181.1464467411766
 31
0.0
  0
CIRCLE
  5
9EE
330
1F
100
AcDbEntity
  8
PEF-120A
  6
CONTINUOUS
100
AcDbCircle
 10
104.677455438685
 20
184.4124315421213
 30
0.0
 40
2.5
  0
CIRCLE
  5
9EF
330
1F
100
AcDbEntity
  8
PEF-120A
  6
CONTINUOUS
100
AcDbCircle
 10
104.677455438685
 20
184.4124315421213
 30
0.0
 40
2.099999999999992
  0
LINE
  5
9F0
330
1F
100
AcDbEntity
  8
PEF-120A
  6
CONTINUOUS
100
AcDbLine
 10
100.216037232221
 20
183.2169981366016
 30
0.0
 11
103.4820220331654
 21
179.9510133356573
 31
0.0
  0
LINE
  5
9F1
330
1F
100
AcDbEntity
  8
PEF-120A
  6
CONTINUOUS
100
AcDbLine
 10
101.4114706377405
 20
187.6784163430657
 30
0.0
 11
100.216037232221
 21
183.2169981366016
 31
0.0
  0
LINE
  5
9F2
330
1F
100
AcDbEntity
  8
PEF-120A
  6
CONTINUOUS
100
AcDbLine
 10
107.9434402396294
 20
181.1464467411766
 30
0.0
 11
109.1388736451491
 21
185.6078649476406
 31
0.0
  0
LINE
  5
9F3
330
1F
100
AcDbEntity
  8
PEF-120A
  6
CONTINUOUS
100
AcDbLine
 10
87.16762201813073
 20
199.4124315421212
 30
0.0
 11
104.677455438685
 21
199.4124315421212
 31
0.0
  0
LINE
  5
9F4
330
1F
100
AcDbEntity
  8
PEF-120A
  6
CONTINUOUS
100
AcDbLine
 10
87.14908566561836
 20
196.4124315421213
 30
0.0
 11
104.6774554386847
 21
196.412431542121
 31
0.0
  0
LINE
  5
9F5
330
1F
100
AcDbEntity
  8
PEF-120A
  6
CONTINUOUS
100
AcDbLine
 10
87.56832840394514
 20
208.1643886707563
 30
0.0
 11
87.56832840394503
 21
213.9033045073815
 31
0.0
  0
ARC
  5
9F6
330
1F
100
AcDbEntity
  8
PEF-120A
  6
CONTINUOUS
100
AcDbCircle
 10
84.49388654607536
 20
201.4124315421212
 30
0.0
 40
1.999999999999971
100
AcDbArc
 50
200.3329019175065
 51
257.7221701092625
  0
ARC
  5
9F7
330
1F
100
AcDbEntity
  8
PEF-120A
  6
CONTINUOUS
100
AcDbCircle
 10
87.16762201813073
 20
201.4124315421212
 30
0.0
 40
1.999999999999992
100
AcDbArc
 50
201.2127856677075
 51
270.0
  0
LINE
  5
9F8
330
1F
100
AcDbEntity
  8
PEF-120A
  6
CONTINUOUS
100
AcDbLine
 10
79.46832840394519
 20
227.4533045073817
 30
0.0
 11
77.76832840394511
 21
227.3045737793875
 31
0.0
  0
LINE
  5
9F9
330
1F
100
AcDbEntity
  8
PEF-120A
  6
CONTINUOUS
100
AcDbLine
 10
79.46832840394519
 20
219.1533045073811
 30
0.0
 11
77.76832840394511
 21
219.3020352353753
 31
0.0
  0
ARC
  5
9FA
330
1F
100
AcDbEntity
  8
PEF-120A
  6
CONTINUOUS
100
AcDbCircle
 10
87.37467577088308
 20
223.3033045073813
 30
0.0
 40
10.4063473669379
100
AcDbArc
 50
157.3871256045213
 51
202.6128743954786
  0
LINE
  5
9FB
330
1F
100
AcDbEntity
  8
PEF-120A
  6
CONTINUOUS
100
AcDbLine
 10
85.06832840394514
 20
223.3033045073816
 30
0.0
 11
83.58662653112331
 21
221.8216026345599
 31
0.0
  0
LINE
  5
9FC
330
1F
100
AcDbEntity
  8
PEF-120A
  6
CONTINUOUS
100
AcDbLine
 10
79.46832840394519
 20
227.4533045073817
 30
0.0
 11
79.46832840394519
 21
219.1533045073811
 31
0.0
  0
ARC
  5
9FD
330
1F
100
AcDbEntity
  8
PEF-120A
  6
CONTINUOUS
100
AcDbCircle
 10
143.5683284039451
 20
223.3033045073813
 30
0.0
 40
60.0
100
AcDbArc
 50
181.4150649166229
 51
189.013470262298
  0
LINE
  5
9FE
330
1F
100
AcDbEntity
  8
PEF-120A
  6
CONTINUOUS
100
AcDbLine
 10
85.06832840394514
 20
223.3033045073816
 30
0.0
 11
83.58662653112331
 21
224.7850063802034
 31
0.0
  0
LINE
  5
9FF
330
1F
100
AcDbEntity
  8
PEF-120A
  6
CENTER2
100
AcDbLine
 10
105.568328403945
 20
219.3507288988245
 30
0.0
 11
105.568328403945
 21
203.2506006731625
 31
0.0
  0
LINE
  5
A00
330
1F
100
AcDbEntity
  8
PEF-120A
  6
CENTER2
100
AcDbLine
 10
93.56832840394528
 20
219.3507288988246
 30
0.0
 11
93.56832840394515
 21
203.2506006731625
 31
0.0
  0
LINE
  5
A01
330
1F
100
AcDbEntity
  8
PEF-120A
  6
CENTER2
100
AcDbLine
 10
99.56832840394516
 20
223.3033045073815
 30
0.0
 11
99.56832840394516
 21
202.1889836402515
 31
0.0
  0
ARC
  5
A02
330
1F
100
AcDbEntity
  8
PEF-120A
  6
CONTINUOUS
100
AcDbCircle
 10
96.73150437981577
 20
205.2721859033038
 30
0.0
 40
0.3368240241293519
100
AcDbArc
 50
290.3964012084111
 51
0.0
  0
ARC
  5
A03
330
1F
100
AcDbEntity
  8
PEF-120A
  6
CONTINUOUS
100
AcDbCircle
 10
90.40515242807451
 20
205.2721859033038
 30
0.0
 40
0.3368240241293563
100
AcDbArc
 50
180.0
 51
249.6035987915886
  0
ARC
  5
A04
330
1F
100
AcDbEntity
  8
PEF-120A
  6
CONTINUOUS
100
AcDbCircle
 10
93.56832840394504
 20
213.7793452631135
 30
0.0
 40
9.413026017668672
100
AcDbArc
 50
249.6035987915819
 51
290.3964012084149
  0
ARC
  5
A05
330
1F
100
AcDbEntity
  8
PEF-120A
  6
CONTINUOUS
100
AcDbCircle
 10
93.56832840394504
 20
212.2265813058499
 30
0.0
 40
8.015553424762048
100
AcDbArc
 50
249.6035987915818
 51
290.3964012084181
  0
ARC
  5
A06
330
1F
100
AcDbEntity
  8
PEF-120A
  6
CONTINUOUS
100
AcDbCircle
 10
90.87476249018653
 20
204.9824081554169
 30
0.0
 40
0.2868186016999419
100
AcDbArc
 50
243.5221382392375
 51
249.6035987915853
  0
LINE
  5
A07
330
1F
100
AcDbEntity
  8
PEF-120A
  6
CONTINUOUS
100
AcDbLine
 10
90.25497876648513
 20
204.9706924629182
 30
0.0
 11
90.74688384572061
 21
204.7256749036349
 31
0.0
  0
ARC
  5
A08
330
1F
100
AcDbEntity
  8
PEF-120A
  6
CONTINUOUS
100
AcDbCircle
 10
96.26189431770388
 20
204.9824081554171
 30
0.0
 40
0.2868186016998726
100
AcDbArc
 50
290.3964012083974
 51
296.4778617607409
  0
LINE
  5
A09
330
1F
100
AcDbEntity
  8
PEF-120A
  6
CONTINUOUS
100
AcDbLine
 10
96.88167804140517
 20
204.9706924629182
 30
0.0
 11
96.38977296216973
 21
204.7256749036349
 31
0.0
  0
ARC
  5
A0A
330
1F
100
AcDbEntity
  8
PEF-120A
  6
CONTINUOUS
100
AcDbCircle
 10
93.56832840394504
 20
218.5685793003553
 30
0.0
 40
10.75774402019198
100
AcDbArc
 50
255.2700529008948
 51
284.729947099105
  0
LINE
  5
A0B
330
1F
100
AcDbEntity
  8
PEF-120A
  6
CONTINUOUS
100
AcDbLine
 10
90.06832840394514
 20
205.2721859033038
 30
0.0
 11
90.06832840394514
 21
208.1643886707566
 31
0.0
  0
LINE
  5
A0C
330
1F
100
AcDbEntity
  8
PEF-120A
  6
CONTINUOUS
100
AcDbLine
 10
97.06832840394516
 20
205.2721859033038
 30
0.0
 11
97.06832840394516
 21
208.1643886707566
 31
0.0
  0
ARC
  5
A0D
330
1F
100
AcDbEntity
  8
PEF-120A
  6
CONTINUOUS
100
AcDbCircle
 10
108.7315043798158
 20
205.2721859033037
 30
0.0
 40
0.3368240241293213
100
AcDbArc
 50
290.3964012083971
 51
359.9999999999996
  0
ARC
  5
A0E
330
1F
100
AcDbEntity
  8
PEF-120A
  6
CONTINUOUS
100
AcDbCircle
 10
102.4051524280743
 20
205.2721859033037
 30
0.0
 40
0.3368240241293847
100
AcDbArc
 50
180.0
 51
249.603598791585
  0
ARC
  5
A0F
330
1F
100
AcDbEntity
  8
PEF-120A
  6
CONTINUOUS
100
AcDbCircle
 10
105.568328403945
 20
213.7793452631135
 30
0.0
 40
9.413026017668697
100
AcDbArc
 50
249.6035987915818
 51
290.3964012084149
  0
ARC
  5
A10
330
1F
100
AcDbEntity
  8
PEF-120A
  6
CONTINUOUS
100
AcDbCircle
 10
105.568328403945
 20
212.2265813058497
 30
0.0
 40
8.015553424762048
100
AcDbArc
 50
249.6035987915818
 51
290.3964012084181
  0
ARC
  5
A11
330
1F
100
AcDbEntity
  8
PEF-120A
  6
CONTINUOUS
100
AcDbCircle
 10
102.8747624901864
 20
204.9824081554169
 30
0.0
 40
0.2868186016999412
100
AcDbArc
 50
243.5221382392375
 51
249.6035987915853
  0
LINE
  5
A12
330
1F
100
AcDbEntity
  8
PEF-120A
  6
CONTINUOUS
100
AcDbLine
 10
102.2549787664851
 20
204.9706924629179
 30
0.0
 11
102.7468838457206
 21
204.7256749036348
 31
0.0
  0
ARC
  5
A13
330
1F
100
AcDbEntity
  8
PEF-120A
  6
CONTINUOUS
100
AcDbCircle
 10
108.2618943177038
 20
204.9824081554169
 30
0.0
 40
0.2868186016998743
100
AcDbArc
 50
290.3964012083974
 51
296.4778617607409
  0
LINE
  5
A14
330
1F
100
AcDbEntity
  8
PEF-120A
  6
CONTINUOUS
100
AcDbLine
 10
108.881678041405
 20
204.9706924629179
 30
0.0
 11
108.3897729621695
 21
204.7256749036348
 31
0.0
  0
ARC
  5
A15
330
1F
100
AcDbEntity
  8
PEF-120A
  6
CONTINUOUS
100
AcDbCircle
 10
105.568328403945
 20
218.5685793003552
 30
0.0
 40
10.75774402019197
100
AcDbArc
 50
255.2700529008948
 51
284.729947099105
  0
LINE
  5
A16
330
1F
100
AcDbEntity
  8
PEF-120A
  6
CONTINUOUS
100
AcDbLine
 10
102.0683284039451
 20
205.2721859033037
 30
0.0
 11
102.0683284039451
 21
208.1643886707563
 31
0.0
  0
LINE
  5
A17
330
1F
100
AcDbEntity
  8
PEF-120A
  6
CONTINUOUS
100
AcDbLine
 10
109.0683284039451
 20
205.2721859033037
 30
0.0
 11
109.0683284039451
 21
208.1643886707563
 31
0.0
  0
LINE
  5
A18
330
1F
100
AcDbEntity
  8
PEF-120A
  6
CONTINUOUS
100
AcDbLine
 10
109.1388736451489
 20
260.9987440671218
 30
0.0
 11
107.9434402396294
 21
265.4601622735857
 31
0.0
  0
LINE
  5
A19
330
1F
100
AcDbEntity
  8
PEF-120A
  6
CONTINUOUS
100
AcDbLine
 10
103.4820220331652
 20
266.6555956791053
 30
0.0
 11
100.2160372322209
 21
263.3896108781609
 31
0.0
  0
CIRCLE
  5
A1A
330
1F
100
AcDbEntity
  8
PEF-120A
  6
CONTINUOUS
100
AcDbCircle
 10
104.6774554386847
 20
262.1941774726414
 30
0.0
 40
3.900000000000004
  0
LINE
  5
A1B
330
1F
100
AcDbEntity
  8
PEF-120A
  6
CONTINUOUS
100
AcDbLine
 10
92.70309719197394
 20
263.5619340015541
 30
0.0
 11
71.08988333232398
 21
285.1751478612038
 31
0.0
  0
LINE
  5
A1C
330
1F
100
AcDbEntity
  8
PEF-120A
  6
CONTINUOUS
100
AcDbLine
 10
89.93176483797595
 20
250.1941774726414
 30
0.0
 11
87.14908566561827
 21
250.1941774726414
 31
0.0
  0
ARC
  5
A1D
330
1F
100
AcDbEntity
  8
PEF-120A
  6
CONTINUOUS
100
AcDbCircle
 10
84.49388654607528
 20
245.1941774726412
 30
0.0
 40
1.999999999999995
100
AcDbArc
 50
102.2778298907375
 51
159.667098082493
  0
ARC
  5
A1E
330
1F
100
AcDbEntity
  8
PEF-120A
  6
CONTINUOUS
100
AcDbCircle
 10
87.16762201813073
 20
245.1941774726413
 30
0.0
 40
2.0
100
AcDbArc
 50
90.0
 51
158.7872143322921
  0
LINE
  5
A1F
330
1F
100
AcDbEntity
  8
PEF-120A
  6
CONTINUOUS
100
AcDbLine
 10
88.52992191395117
 20
247.1941774726412
 30
0.0
 11
87.16762201813073
 21
247.1941774726413
 31
0.0
  0
ARC
  5
A20
330
1F
100
AcDbEntity
  8
PEF-120A
  6
CONTINUOUS
100
AcDbCircle
 10
85.69394337025949
 20
248.1941774726414
 30
0.0
 40
2.0
100
AcDbArc
 50
99.3389436239258
 51
156.7282118156829
  0
LINE
  5
A21
330
1F
100
AcDbEntity
  8
PEF-120A
  6
HIDDEN
100
AcDbLine
 10
99.37415457978588
 20
256.8908766137423
 30
0.0
 11
92.70309719197394
 21
263.5619340015541
 31
0.0
  0
LINE
  5
A22
330
1F
100
AcDbEntity
  8
PEF-120A
  6
CONTINUOUS
100
AcDbLine
 10
101.4114706377404
 20
258.9281926716968
 30
0.0
 11
105.8728888442044
 21
257.7327592661774
 31
0.0
  0
CIRCLE
  5
A23
330
1F
100
AcDbEntity
  8
PEF-120A
  6
CONTINUOUS
100
AcDbCircle
 10
104.6774554386847
 20
262.1941774726414
 30
0.0
 40
2.5
  0
CIRCLE
  5
A24
330
1F
100
AcDbEntity
  8
PEF-120A
  6
CONTINUOUS
100
AcDbCircle
 10
104.6774554386847
 20
262.1941774726414
 30
0.0
 40
2.099999999999992
  0
LINE
  5
A25
330
1F
100
AcDbEntity
  8
PEF-120A
  6
CONTINUOUS
100
AcDbLine
 10
100.2160372322209
 20
263.3896108781609
 30
0.0
 11
101.4114706377404
 21
258.9281926716968
 31
0.0
  0
LINE
  5
A26
330
1F
100
AcDbEntity
  8
PEF-120A
  6
CONTINUOUS
100
AcDbLine
 10
105.8728888442044
 20
257.7327592661774
 30
0.0
 11
109.1388736451489
 21
260.9987440671218
 31
0.0
  0
ARC
  5
A27
330
1F
100
AcDbEntity
  8
PEF-120A
  6
CONTINUOUS
100
AcDbCircle
 10
90.53531981495405
 20
276.3363130963721
 30
0.0
 40
3.499999999999976
100
AcDbArc
 50
225.0
 51
44.99999999999971
  0
LINE
  5
A28
330
1F
100
AcDbEntity
  8
PEF-120A
  6
CONTINUOUS
100
AcDbLine
 10
103.3096989097719
 20
274.1685357193525
 30
0.0
 11
81.69648505012219
 21
295.7817495790024
 31
0.0
  0
LINE
  5
A29
330
1F
100
AcDbEntity
  8
PEF-120A
  6
CONTINUOUS
100
AcDbLine
 10
93.01019354910691
 20
278.8111868305251
 30
0.0
 11
78.86805792537605
 21
292.9533224542561
 31
0.0
  0
LINE
  5
A2A
330
1F
100
AcDbEntity
  8
PEF-120A
  6
CENTER2
100
AcDbLine
 10
91.60993604162577
 20
291.5530649467748
 30
0.0
 11
76.05358685552173
 21
275.9967157606707
 31
0.0
  0
LINE
  5
A2B
330
1F
100
AcDbEntity
  8
PEF-120A
  6
CONTINUOUS
100
AcDbLine
 10
88.06044608080105
 20
273.8614393622193
 30
0.0
 11
73.91831045707033
 21
288.0035749859503
 31
0.0
  0
ARC
  5
A2C
330
1F
100
AcDbEntity
  8
PEF-120A
  6
CONTINUOUS
100
AcDbCircle
 10
76.39318419122315
 20
290.4784487201031
 30
0.0
 40
3.499999999999976
100
AcDbArc
 50
45.0
 51
225.0
  0
LINE
  5
A2D
330
1F
100
AcDbEntity
  8
PEF-120A
  6
HIDDEN
100
AcDbLine
 10
109.9807562975839
 20
267.4974783315405
 30
0.0
 11
103.3096989097719
 21
274.1685357193525
 31
0.0
  0
LINE
  5
A2E
330
1F
100
AcDbEntity
  8
PEF-120A
  6
CONTINUOUS
100
AcDbLine
 10
107.9434402396294
 20
265.4601622735857
 30
0.0
 11
103.4820220331652
 21
266.6555956791053
 31
0.0
  0
CIRCLE
  5
A2F
330
1F
100
AcDbEntity
  8
PEF-120A
  6
CONTINUOUS
100
AcDbCircle
 10
143.5683284039451
 20
223.3033045073813
 30
0.0
 40
24.99999999999996
  0
LINE
  5
A30
330
1F
100
AcDbEntity
  8
PEF-120A
  6
CENTER2
100
AcDbLine
 10
181.5683284039452
 20
227.255880115938
 30
0.0
 11
181.5683284039451
 21
243.3560083416002
 31
0.0
  0
LINE
  5
A31
330
1F
100
AcDbEntity
  8
PEF-120A
  6
CENTER2
100
AcDbLine
 10
187.568328403945
 20
223.3033045073813
 30
0.0
 11
187.568328403945
 21
244.4176253745111
 31
0.0
  0
LINE
  5
A32
330
1F
100
AcDbEntity
  8
PEF-120A
  6
CENTER2
100
AcDbLine
 10
147.5209040125015
 20
185.3033045073813
 30
0.0
 11
163.6210322381639
 21
185.3033045073813
 31
0.0
  0
LINE
  5
A33
330
1F
100
AcDbEntity
  8
PEF-120A
  6
CENTER2
100
AcDbLine
 10
147.5209040125015
 20
173.3033045073814
 30
0.0
 11
163.6210322381639
 21
173.3033045073813
 31
0.0
  0
LINE
  5
A34
330
1F
100
AcDbEntity
  8
PEF-120A
  6
CENTER2
100
AcDbLine
 10
143.5683284039449
 20
179.3033045073814
 30
0.0
 11
164.6826492710748
 21
179.303304507381
 31
0.0
  0
ARC
  5
A35
330
1F
100
AcDbEntity
  8
PEF-120A
  6
CONTINUOUS
100
AcDbCircle
 10
143.5683284039451
 20
223.3033045073813
 30
0.0
 40
60.0
100
AcDbArc
 50
271.4150649166235
 51
279.0134702622966
  0
LINE
  5
A36
330
1F
100
AcDbEntity
  8
PEF-120A
  6
CONTINUOUS
100
AcDbLine
 10
116.5683284039451
 20
207.3417516945724
 30
0.0
 11
116.5683284039449
 21
169.7215912089063
 31
0.0
  0
ARC
  5
A37
330
1F
100
AcDbEntity
  8
PEF-120A
  6
CONTINUOUS
100
AcDbCircle
 10
121.677455438685
 20
164.2288626495115
 30
0.0
 40
1.999999999999965
100
AcDbArc
 50
192.2778298907376
 51
249.6670980824942
  0
ARC
  5
A38
330
1F
100
AcDbEntity
  8
PEF-120A
  6
CONTINUOUS
100
AcDbCircle
 10
121.677455438685
 20
166.902598121567
 30
0.0
 40
2.0
100
AcDbArc
 50
180.0
 51
248.7872143322926
  0
LINE
  5
A39
330
1F
100
AcDbEntity
  8
PEF-120A
  6
CONTINUOUS
100
AcDbLine
 10
119.6774554386849
 20
168.2648980173875
 30
0.0
 11
119.6774554386849
 21
166.902598121567
 31
0.0
  0
LINE
  5
A3A
330
1F
100
AcDbEntity
  8
PEF-120A
  6
CONTINUOUS
100
AcDbLine
 10
116.6774554386849
 20
169.6667409414123
 30
0.0
 11
116.6774554386849
 21
166.8840617690545
 31
0.0
  0
ARC
  5
A3B
330
1F
100
AcDbEntity
  8
PEF-120A
  6
CONTINUOUS
100
AcDbCircle
 10
118.6774554386849
 20
165.4289194736958
 30
0.0
 40
2.000000000000035
100
AcDbArc
 50
189.338943623924
 51
246.7282118156826
  0
LINE
  5
A3C
330
1F
100
AcDbEntity
  8
PEF-120A
  6
CONTINUOUS
100
AcDbLine
 10
143.5683284039449
 20
164.8033045073814
 30
0.0
 11
145.0500302767665
 21
163.3216026345595
 31
0.0
  0
LINE
  5
A3D
330
1F
100
AcDbEntity
  8
PEF-120A
  6
CONTINUOUS
100
AcDbLine
 10
143.5683284039449
 20
164.8033045073814
 30
0.0
 11
142.086626531123
 21
163.3216026345595
 31
0.0
  0
LINE
  5
A3E
330
1F
100
AcDbEntity
  8
PEF-120A
  6
CONTINUOUS
100
AcDbLine
 10
111.5683284039451
 20
213.9033045073815
 30
0.0
 11
111.5683284039451
 21
208.1643886707563
 31
0.0
  0
ARC
  5
A3F
330
1F
100
AcDbEntity
  8
PEF-120A
  6
CONTINUOUS
100
AcDbCircle
 10
112.5683284039451
 20
209.4033045073814
 30
0.0
 40
4.500000000000011
100
AcDbArc
 50
332.7339555492673
 51
90.0
  0
CIRCLE
  5
A40
330
1F
100
AcDbEntity
  8
PEF-120A
  6
CONTINUOUS
100
AcDbCircle
 10
143.5683284039451
 20
223.3033045073813
 30
0.0
 40
2.349999999999992
  0
CIRCLE
  5
A41
330
1F
100
AcDbEntity
  8
PEF-120A
  6
CONTINUOUS
100
AcDbCircle
 10
143.5683284039451
 20
223.3033045073813
 30
0.0
 40
3.0
  0
ARC
  5
A42
330
1F
100
AcDbEntity
  8
PEF-120A
  6
CONTINUOUS
100
AcDbCircle
 10
182.4592013692051
 20
184.4124315421213
 30
0.0
 40
15.0
100
AcDbArc
 50
127.5591115539107
 51
180.0
  0
ARC
  5
A43
330
1F
100
AcDbEntity
  8
PEF-120A
  6
CONTINUOUS
100
AcDbCircle
 10
182.4592013692051
 20
184.4124315421213
 30
0.0
 40
11.99999999999999
100
AcDbArc
 50
97.73290819861477
 51
180.0
  0
ARC
  5
A44
330
1F
100
AcDbEntity
  8
PEF-120A
  6
CONTINUOUS
100
AcDbCircle
 10
157.4683284039449
 20
192.3033045073814
 30
0.0
 40
4.500000000000026
100
AcDbArc
 50
62.73395554926469
 51
180.0
  0
LINE
  5
A45
330
1F
100
AcDbEntity
  8
PEF-120A
  6
CONTINUOUS
100
AcDbLine
 10
167.4592013692049
 20
166.902598121567
 30
0.0
 11
167.4592013692049
 21
184.4124315421213
 31
0.0
  0
LINE
  5
A46
330
1F
100
AcDbEntity
  8
PEF-120A
  6
CONTINUOUS
100
AcDbLine
 10
170.459201369205
 20
166.8840617690545
 30
0.0
 11
170.459201369205
 21
184.4124315421213
 31
0.0
  0
LINE
  5
A47
330
1F
100
AcDbEntity
  8
PEF-120A
  6
CONTINUOUS
100
AcDbLine
 10
158.7072442405698
 20
191.3033045073813
 30
0.0
 11
158.7072442405698
 21
167.3033045073813
 31
0.0
  0
LINE
  5
A48
330
1F
100
AcDbEntity
  8
PEF-120A
  6
CONTINUOUS
100
AcDbLine
 10
153.491244778609
 20
191.3033045073813
 30
0.0
 11
153.491244778609
 21
167.3033045073813
 31
0.0
  0
LINE
  5
A49
330
1F
100
AcDbEntity
  8
PEF-120A
  6
CONTINUOUS
100
AcDbLine
 10
154.6503557701558
 20
167.3033045073813
 30
0.0
 11
154.6503557701559
 21
191.3033045073813
 31
0.0
  0
LINE
  5
A4A
330
1F
100
AcDbEntity
  8
PEF-120A
  6
CONTINUOUS
100
AcDbLine
 10
155.616281596445
 20
191.3033045073813
 30
0.0
 11
155.6162815964449
 21
167.3033045073813
 31
0.0
  0
LINE
  5
A4B
330
1F
100
AcDbEntity
  8
PEF-120A
  6
CONTINUOUS
100
AcDbLine
 10
152.9683284039449
 20
192.3033045073814
 30
0.0
 11
152.9683284039449
 21
164.0442123779874
 31
0.0
  0
ARC
  5
A4C
330
1F
100
AcDbEntity
  8
PEF-120A
  6
CONTINUOUS
100
AcDbCircle
 10
153.0922876482125
 20
173.3033045073813
 30
0.0
 40
9.413026017668693
100
AcDbArc
 50
339.6035987915837
 51
20.39640120841605
  0
ARC
  5
A4D
330
1F
100
AcDbEntity
  8
PEF-120A
  6
CONTINUOUS
100
AcDbCircle
 10
154.6450516054764
 20
173.3033045073814
 30
0.0
 40
8.015553424762051
100
AcDbArc
 50
339.6035987915818
 51
20.39640120841681
  0
LINE
  5
A4E
330
1F
100
AcDbEntity
  8
PEF-120A
  6
CONTINUOUS
100
AcDbLine
 10
158.7072442405698
 20
167.3033045073813
 30
0.0
 11
152.9683284039449
 21
167.3033045073813
 31
0.0
  0
ARC
  5
A4F
330
1F
100
AcDbEntity
  8
PEF-120A
  6
CONTINUOUS
100
AcDbCircle
 10
161.5994470080226
 20
170.1401285315107
 30
0.0
 40
0.3368240241293705
100
AcDbArc
 50
270.0
 51
339.6035987915857
  0
ARC
  5
A50
330
1F
100
AcDbEntity
  8
PEF-120A
  6
CONTINUOUS
100
AcDbCircle
 10
161.8892247559093
 20
170.6097385936224
 30
0.0
 40
0.286818601699927
100
AcDbArc
 50
333.5221382392635
 51
339.6035987915813
  0
LINE
  5
A51
330
1F
100
AcDbEntity
  8
PEF-120A
  6
CONTINUOUS
100
AcDbLine
 10
161.9009404484081
 20
169.9899548699213
 30
0.0
 11
162.1459580076916
 21
170.4818599491565
 31
0.0
  0
LINE
  5
A52
330
1F
100
AcDbEntity
  8
PEF-120A
  6
CONTINUOUS
100
AcDbLine
 10
161.5994470080226
 20
169.8033045073813
 30
0.0
 11
158.7072442405698
 21
169.8033045073813
 31
0.0
  0
ARC
  5
A53
330
1F
100
AcDbEntity
  8
PEF-120A
  6
CONTINUOUS
100
AcDbCircle
 10
161.5994470080226
 20
176.4664804832519
 30
0.0
 40
0.3368240241294083
100
AcDbArc
 50
20.39640120841223
 51
90.0
  0
ARC
  5
A54
330
1F
100
AcDbEntity
  8
PEF-120A
  6
CONTINUOUS
100
AcDbCircle
 10
161.8892247559093
 20
175.9968704211399
 30
0.0
 40
0.2868186016998757
100
AcDbArc
 50
20.39640120841644
 51
26.47786176073568
  0
LINE
  5
A55
330
1F
100
AcDbEntity
  8
PEF-120A
  6
CONTINUOUS
100
AcDbLine
 10
161.900940448408
 20
176.6166541448414
 30
0.0
 11
162.1459580076914
 21
176.1247490656058
 31
0.0
  0
LINE
  5
A56
330
1F
100
AcDbEntity
  8
PEF-120A
  6
CONTINUOUS
100
AcDbLine
 10
161.5994470080226
 20
176.8033045073813
 30
0.0
 11
158.7072442405698
 21
176.8033045073813
 31
0.0
  0
ARC
  5
A57
330
1F
100
AcDbEntity
  8
PEF-120A
  6
CONTINUOUS
100
AcDbCircle
 10
148.3030536109709
 20
173.3033045073814
 30
0.0
 40
10.75774402019205
100
AcDbArc
 50
345.2700529008946
 51
14.72994709910524
  0
ARC
  5
A58
330
1F
100
AcDbEntity
  8
PEF-120A
  6
CONTINUOUS
100
AcDbCircle
 10
165.459201369205
 20
164.2288626495115
 30
0.0
 40
1.999999999999992
100
AcDbArc
 50
290.3329019175053
 51
347.7221701092617
  0
ARC
  5
A59
330
1F
100
AcDbEntity
  8
PEF-120A
  6
CONTINUOUS
100
AcDbCircle
 10
165.459201369205
 20
166.902598121567
 30
0.0
 40
2.000000000000018
100
AcDbArc
 50
291.2127856677071
 51
0.0
  0
ARC
  5
A5A
330
1F
100
AcDbEntity
  8
PEF-120A
  6
CONTINUOUS
100
AcDbCircle
 10
168.459201369205
 20
165.4289194736959
 30
0.0
 40
2.000000000000005
100
AcDbArc
 50
293.2717881843172
 51
350.6610563760742
  0
ARC
  5
A5B
330
1F
100
AcDbEntity
  8
PEF-120A
  6
CONTINUOUS
100
AcDbCircle
 10
153.0922876482128
 20
185.3033045073813
 30
0.0
 40
9.413026017668681
100
AcDbArc
 50
339.6035987915835
 51
20.39640120841605
  0
ARC
  5
A5C
330
1F
100
AcDbEntity
  8
PEF-120A
  6
CONTINUOUS
100
AcDbCircle
 10
154.6450516054765
 20
185.3033045073813
 30
0.0
 40
8.01555342476205
100
AcDbArc
 50
339.6035987915818
 51
20.39640120841681
  0
ARC
  5
A5D
330
1F
100
AcDbEntity
  8
PEF-120A
  6
CONTINUOUS
100
AcDbCircle
 10
148.3030536109713
 20
185.3033045073813
 30
0.0
 40
10.75774402019198
100
AcDbArc
 50
345.2700529008946
 51
14.72994709910524
  0
ARC
  5
A5E
330
1F
100
AcDbEntity
  8
PEF-120A
  6
CONTINUOUS
100
AcDbCircle
 10
161.5994470080226
 20
182.1401285315104
 30
0.0
 40
0.3368240241293741
100
AcDbArc
 50
270.0
 51
339.6035987915835
  0
ARC
  5
A5F
330
1F
100
AcDbEntity
  8
PEF-120A
  6
CONTINUOUS
100
AcDbCircle
 10
161.8892247559095
 20
182.6097385936227
 30
0.0
 40
0.2868186016998427
100
AcDbArc
 50
333.5221382392518
 51
339.6035987915776
  0
LINE
  5
A60
330
1F
100
AcDbEntity
  8
PEF-120A
  6
CONTINUOUS
100
AcDbLine
 10
161.9009404484084
 20
181.9899548699211
 30
0.0
 11
162.1459580076916
 21
182.4818599491566
 31
0.0
  0
LINE
  5
A61
330
1F
100
AcDbEntity
  8
PEF-120A
  6
CONTINUOUS
100
AcDbLine
 10
161.5994470080226
 20
181.8033045073813
 30
0.0
 11
158.7072442405698
 21
181.8033045073813
 31
0.0
  0
LINE
  5
A62
330
1F
100
AcDbEntity
  8
PEF-120A
  6
CONTINUOUS
100
AcDbLine
 10
152.9683284039449
 20
191.3033045073813
 30
0.0
 11
158.7072442405698
 21
191.3033045073813
 31
0.0
  0
ARC
  5
A63
330
1F
100
AcDbEntity
  8
PEF-120A
  6
CONTINUOUS
100
AcDbCircle
 10
161.5994470080226
 20
188.4664804832519
 30
0.0
 40
0.3368240241293879
100
AcDbArc
 50
20.39640120841605
 51
90.0
  0
ARC
  5
A64
330
1F
100
AcDbEntity
  8
PEF-120A
  6
CONTINUOUS
100
AcDbCircle
 10
161.8892247559095
 20
187.9968704211399
 30
0.0
 40
0.2868186016998686
100
AcDbArc
 50
20.39640120842137
 51
26.47786176074624
  0
LINE
  5
A65
330
1F
100
AcDbEntity
  8
PEF-120A
  6
CONTINUOUS
100
AcDbLine
 10
161.9009404484084
 20
188.6166541448411
 30
0.0
 11
162.1459580076916
 21
188.1247490656059
 31
0.0
  0
LINE
  5
A66
330
1F
100
AcDbEntity
  8
PEF-120A
  6
CONTINUOUS
100
AcDbLine
 10
161.5994470080226
 20
188.8033045073813
 30
0.0
 11
158.7072442405698
 21
188.8033045073813
 31
0.0
  0
ARC
  5
A67
330
1F
100
AcDbEntity
  8
PEF-120A
  6
CENTER2
100
AcDbCircle
 10
143.5683284039451
 20
223.3033045073813
 30
0.0
 40
55.0
100
AcDbArc
 50
302.7995140789381
 51
327.2004859210625
  0
CIRCLE
  5
A68
330
1F
100
AcDbEntity
  8
PEF-120A
  6
HIDDEN
100
AcDbCircle
 10
182.4592013692051
 20
184.4124315421213
 30
0.0
 40
7.5
  0
LINE
  5
A69
330
1F
100
AcDbEntity
  8
PEF-120A
  6
HIDDEN
100
AcDbLine
 10
177.155900510306
 20
179.109130683222
 30
0.0
 11
183.8269578981179
 21
172.4380732954101
 31
0.0
  0
LINE
  5
A6A
330
1F
100
AcDbEntity
  8
PEF-120A
  6
CONTINUOUS
100
AcDbLine
 10
185.7251861701496
 20
187.6784163430658
 30
0.0
 11
181.2637679636857
 21
188.8738497485853
 31
0.0
  0
LINE
  5
A6B
330
1F
100
AcDbEntity
  8
PEF-120A
  6
CONTINUOUS
100
AcDbLine
 10
179.1932165682606
 20
181.1464467411767
 30
0.0
 11
183.6546347747245
 21
179.9510133356574
 31
0.0
  0
CIRCLE
  5
A6C
330
1F
100
AcDbEntity
  8
PEF-120A
  6
CONTINUOUS
100
AcDbCircle
 10
182.4592013692051
 20
184.4124315421213
 30
0.0
 40
3.899999999999991
  0
CIRCLE
  5
A6D
330
1F
100
AcDbEntity
  8
PEF-120A
  6
CONTINUOUS
100
AcDbCircle
 10
182.4592013692051
 20
184.4124315421213
 30
0.0
 40
2.5
  0
CIRCLE
  5
A6E
330
1F
100
AcDbEntity
  8
PEF-120A
  6
CONTINUOUS
100
AcDbCircle
 10
182.4592013692051
 20
184.4124315421213
 30
0.0
 40
2.099999999999992
  0
LINE
  5
A6F
330
1F
100
AcDbEntity
  8
PEF-120A
  6
CONTINUOUS
100
AcDbLine
 10
181.2637679636857
 20
188.8738497485853
 30
0.0
 11
177.997783162741
 21
185.6078649476407
 31
0.0
  0
LINE
  5
A70
330
1F
100
AcDbEntity
  8
PEF-120A
  6
CONTINUOUS
100
AcDbLine
 10
177.997783162741
 20
185.6078649476407
 30
0.0
 11
179.1932165682606
 21
181.1464467411767
 31
0.0
  0
LINE
  5
A71
330
1F
100
AcDbEntity
  8
PEF-120A
  6
CONTINUOUS
100
AcDbLine
 10
183.6546347747245
 20
179.9510133356574
 30
0.0
 11
186.9206195756691
 21
183.2169981366018
 31
0.0
  0
LINE
  5
A72
330
1F
100
AcDbEntity
  8
PEF-120A
  6
CONTINUOUS
100
AcDbLine
 10
186.9206195756691
 20
183.2169981366018
 30
0.0
 11
185.7251861701496
 21
187.6784163430658
 31
0.0
  0
ARC
  5
A73
330
1F
100
AcDbEntity
  8
PEF-120A
  6
CONTINUOUS
100
AcDbCircle
 10
143.5683284039451
 20
223.3033045073813
 30
0.0
 40
60.0
100
AcDbArc
 50
63.2563160495975
 51
88.58493508337645
  0
LINE
  5
A74
330
1F
100
AcDbEntity
  8
PEF-120A
  6
CONTINUOUS
100
AcDbLine
 10
134.1683284039451
 20
254.3033045073813
 30
0.0
 11
134.1683284039451
 21
282.5623966367753
 31
0.0
  0
LINE
  5
A75
330
1F
100
AcDbEntity
  8
PEF-120A
  6
CONTINUOUS
100
AcDbLine
 10
128.42941256732
 20
255.3033045073814
 30
0.0
 11
128.42941256732
 21
279.3033045073814
 31
0.0
  0
LINE
  5
A76
330
1F
100
AcDbEntity
  8
PEF-120A
  6
CONTINUOUS
100
AcDbLine
 10
133.6454120292809
 20
255.3033045073815
 30
0.0
 11
133.6454120292809
 21
279.3033045073814
 31
0.0
  0
LINE
  5
A77
330
1F
100
AcDbEntity
  8
PEF-120A
  6
CONTINUOUS
100
AcDbLine
 10
132.486301037734
 20
279.3033045073814
 30
0.0
 11
132.486301037734
 21
255.3033045073815
 31
0.0
  0
LINE
  5
A78
330
1F
100
AcDbEntity
  8
PEF-120A
  6
CONTINUOUS
100
AcDbLine
 10
131.5203752114451
 20
255.3033045073815
 30
0.0
 11
131.5203752114451
 21
279.3033045073814
 31
0.0
  0
LINE
  5
A79
330
1F
100
AcDbEntity
  8
PEF-120A
  6
CONTINUOUS
100
AcDbLine
 10
119.6774554386849
 20
279.7040108931956
 30
0.0
 11
119.6774554386849
 21
262.1941774726415
 31
0.0
  0
LINE
  5
A7A
330
1F
100
AcDbEntity
  8
PEF-120A
  6
CONTINUOUS
100
AcDbLine
 10
116.6774554386849
 20
279.7225472457081
 30
0.0
 11
116.6774554386849
 21
262.1941774726415
 31
0.0
  0
LINE
  5
A7B
330
1F
100
AcDbEntity
  8
PEF-120A
  6
CONTINUOUS
100
AcDbLine
 10
134.1683284039451
 20
255.3033045073815
 30
0.0
 11
128.42941256732
 21
255.3033045073814
 31
0.0
  0
ARC
  5
A7C
330
1F
100
AcDbEntity
  8
PEF-120A
  6
CONTINUOUS
100
AcDbCircle
 10
129.6683284039451
 20
254.3033045073815
 30
0.0
 40
4.499999999999983
100
AcDbArc
 50
242.7339555492677
 51
359.9999999999996
  0
LINE
  5
A7D
330
1F
100
AcDbEntity
  8
PEF-120A
  6
CENTER2
100
AcDbLine
 10
139.6157527953885
 20
261.3033045073814
 30
0.0
 11
123.5156245697263
 21
261.3033045073814
 31
0.0
  0
ARC
  5
A7E
330
1F
100
AcDbEntity
  8
PEF-120A
  6
CONTINUOUS
100
AcDbCircle
 10
104.6774554386847
 20
262.1941774726415
 30
0.0
 40
15.0
100
AcDbArc
 50
307.5591115539108
 51
0.0
  0
LINE
  5
A7F
330
1F
100
AcDbEntity
  8
PEF-120A
  6
CONTINUOUS
100
AcDbLine
 10
125.5372097998675
 20
264.8033045073814
 30
0.0
 11
128.42941256732
 21
264.8033045073814
 31
0.0
  0
LINE
  5
A80
330
1F
100
AcDbEntity
  8
PEF-120A
  6
CONTINUOUS
100
AcDbLine
 10
125.5372097998673
 20
257.8033045073814
 30
0.0
 11
128.42941256732
 21
257.8033045073814
 31
0.0
  0
ARC
  5
A81
330
1F
100
AcDbEntity
  8
PEF-120A
  6
CONTINUOUS
100
AcDbCircle
 10
125.5372097998675
 20
264.4664804832521
 30
0.0
 40
0.3368240241293563
100
AcDbArc
 50
90.0
 51
159.6035987915865
  0
ARC
  5
A82
330
1F
100
AcDbEntity
  8
PEF-120A
  6
CONTINUOUS
100
AcDbCircle
 10
125.2474320519807
 20
263.9968704211399
 30
0.0
 40
0.2868186016998633
100
AcDbArc
 50
153.5221382392568
 51
159.603598791579
  0
LINE
  5
A83
330
1F
100
AcDbEntity
  8
PEF-120A
  6
CONTINUOUS
100
AcDbLine
 10
125.2357163594818
 20
264.6166541448414
 30
0.0
 11
124.9906988001985
 21
264.124749065606
 31
0.0
  0
ARC
  5
A84
330
1F
100
AcDbEntity
  8
PEF-120A
  6
CONTINUOUS
100
AcDbCircle
 10
125.5372097998673
 20
258.1401285315108
 30
0.0
 40
0.3368240241293043
100
AcDbArc
 50
200.3964012084197
 51
270.0
  0
ARC
  5
A85
330
1F
100
AcDbEntity
  8
PEF-120A
  6
CONTINUOUS
100
AcDbCircle
 10
125.2474320519807
 20
258.6097385936227
 30
0.0
 40
0.2868186016998831
100
AcDbArc
 50
200.3964012084209
 51
206.4778617607363
  0
LINE
  5
A86
330
1F
100
AcDbEntity
  8
PEF-120A
  6
CONTINUOUS
100
AcDbLine
 10
125.2357163594818
 20
257.9899548699214
 30
0.0
 11
124.9906988001985
 21
258.4818599491566
 31
0.0
  0
ARC
  5
A87
330
1F
100
AcDbEntity
  8
PEF-120A
  6
CONTINUOUS
100
AcDbCircle
 10
134.0443691596774
 20
261.3033045073814
 30
0.0
 40
9.413026017668659
100
AcDbArc
 50
159.6035987915835
 51
200.396401208416
  0
ARC
  5
A88
330
1F
100
AcDbEntity
  8
PEF-120A
  6
CONTINUOUS
100
AcDbCircle
 10
132.4916052024134
 20
261.3033045073814
 30
0.0
 40
8.015553424762059
100
AcDbArc
 50
159.6035987915819
 51
200.3964012084168
  0
ARC
  5
A89
330
1F
100
AcDbEntity
  8
PEF-120A
  6
CONTINUOUS
100
AcDbCircle
 10
138.8336031969189
 20
261.3033045073814
 30
0.0
 40
10.75774402019206
100
AcDbArc
 50
165.2700529008946
 51
194.7299470991048
  0
LINE
  5
A8A
330
1F
100
AcDbEntity
  8
PEF-120A
  6
CONTINUOUS
100
AcDbLine
 10
128.42941256732
 20
279.3033045073814
 30
0.0
 11
134.1683284039451
 21
279.3033045073814
 31
0.0
  0
LINE
  5
A8B
330
1F
100
AcDbEntity
  8
PEF-120A
  6
CENTER2
100
AcDbLine
 10
139.6157527953885
 20
273.3033045073813
 30
0.0
 11
123.5156245697263
 21
273.3033045073814
 31
0.0
  0
LINE
  5
A8C
330
1F
100
AcDbEntity
  8
PEF-120A
  6
CENTER2
100
AcDbLine
 10
143.5683284039451
 20
267.3033045073813
 30
0.0
 11
122.4540075368153
 21
267.3033045073814
 31
0.0
  0
ARC
  5
A8D
330
1F
100
AcDbEntity
  8
PEF-120A
  6
CONTINUOUS
100
AcDbCircle
 10
118.6774554386849
 20
281.1776895410666
 30
0.0
 40
2.000000000000011
100
AcDbArc
 50
113.2717881843174
 51
170.661056376073
  0
ARC
  5
A8E
330
1F
100
AcDbEntity
  8
PEF-120A
  6
CONTINUOUS
100
AcDbCircle
 10
121.6774554386849
 20
279.7040108931956
 30
0.0
 40
2.000000000000003
100
AcDbArc
 50
111.2127856677072
 51
180.0
  0
ARC
  5
A8F
330
1F
100
AcDbEntity
  8
PEF-120A
  6
CONTINUOUS
100
AcDbCircle
 10
138.8336031969189
 20
273.3033045073814
 30
0.0
 40
10.75774402019193
100
AcDbArc
 50
165.2700529008943
 51
194.7299470991051
  0
ARC
  5
A90
330
1F
100
AcDbEntity
  8
PEF-120A
  6
CONTINUOUS
100
AcDbCircle
 10
134.0443691596774
 20
273.3033045073814
 30
0.0
 40
9.413026017668656
100
AcDbArc
 50
159.6035987915835
 51
200.396401208416
  0
ARC
  5
A91
330
1F
100
AcDbEntity
  8
PEF-120A
  6
CONTINUOUS
100
AcDbCircle
 10
132.4916052024136
 20
273.3033045073814
 30
0.0
 40
8.015553424762138
100
AcDbArc
 50
159.6035987915831
 51
200.3964012084163
  0
LINE
  5
A92
330
1F
100
AcDbEntity
  8
PEF-120A
  6
CONTINUOUS
100
AcDbLine
 10
125.5372097998675
 20
269.8033045073814
 30
0.0
 11
128.4294125673203
 21
269.8033045073814
 31
0.0
  0
ARC
  5
A93
330
1F
100
AcDbEntity
  8
PEF-120A
  6
CONTINUOUS
100
AcDbCircle
 10
125.5372097998675
 20
270.1401285315108
 30
0.0
 40
0.3368240241293092
100
AcDbArc
 50
200.396401208422
 51
270.0
  0
ARC
  5
A94
330
1F
100
AcDbEntity
  8
PEF-120A
  6
CONTINUOUS
100
AcDbCircle
 10
125.2474320519807
 20
270.6097385936228
 30
0.0
 40
0.2868186016998831
100
AcDbArc
 50
200.3964012084209
 51
206.4778617607363
  0
LINE
  5
A95
330
1F
100
AcDbEntity
  8
PEF-120A
  6
CONTINUOUS
100
AcDbLine
 10
125.2357163594818
 20
269.9899548699213
 30
0.0
 11
124.9906988001987
 21
270.4818599491566
 31
0.0
  0
LINE
  5
A96
330
1F
100
AcDbEntity
  8
PEF-120A
  6
CONTINUOUS
100
AcDbLine
 10
125.5372097998675
 20
276.8033045073814
 30
0.0
 11
128.4294125673203
 21
276.8033045073814
 31
0.0
  0
ARC
  5
A97
330
1F
100
AcDbEntity
  8
PEF-120A
  6
CONTINUOUS
100
AcDbCircle
 10
125.5372097998675
 20
276.4664804832519
 30
0.0
 40
0.3368240241293705
100
AcDbArc
 50
90.0
 51
159.6035987915843
  0
ARC
  5
A98
330
1F
100
AcDbEntity
  8
PEF-120A
  6
CONTINUOUS
100
AcDbCircle
 10
125.2474320519807
 20
275.99687042114
 30
0.0
 40
0.2868186016998633
100
AcDbArc
 50
153.5221382392568
 51
159.6035987915812
  0
LINE
  5
A99
330
1F
100
AcDbEntity
  8
PEF-120A
  6
CONTINUOUS
100
AcDbLine
 10
125.2357163594818
 20
276.6166541448414
 30
0.0
 11
124.9906988001985
 21
276.124749065606
 31
0.0
  0
ARC
  5
A9A
330
1F
100
AcDbEntity
  8
PEF-120A
  6
CONTINUOUS
100
AcDbCircle
 10
121.6774554386849
 20
282.3777463652512
 30
0.0
 40
2.000000000000015
100
AcDbArc
 50
110.3329019175053
 51
167.7221701092603
  0
LINE
  5
A9B
330
1F
100
AcDbEntity
  8
PEF-120A
  6
CONTINUOUS
100
AcDbLine
 10
143.5683284039451
 20
281.8033045073813
 30
0.0
 11
142.0866265311234
 21
283.2850063802031
 31
0.0
  0
LINE
  5
A9C
330
1F
100
AcDbEntity
  8
PEF-120A
  6
CONTINUOUS
100
AcDbLine
 10
143.5683284039451
 20
281.8033045073813
 30
0.0
 11
145.050030276767
 21
283.2850063802031
 31
0.0
  0
ARC
  5
A9D
330
1F
100
AcDbEntity
  8
PEF-120A
  6
CONTINUOUS
100
AcDbCircle
 10
143.5683284039451
 20
223.3033045073813
 30
0.0
 40
60.0
100
AcDbArc
 50
91.41506491662353
 51
99.01347026229665
  0
ARC
  5
A9E
330
1F
100
AcDbEntity
  8
PEF-120A
  6
CONTINUOUS
100
AcDbCircle
 10
143.5683284039451
 20
279.4969571404434
 30
0.0
 40
10.40634736693796
100
AcDbArc
 50
67.38712560451978
 51
112.61287439548
  0
LINE
  5
A9F
330
1F
100
AcDbEntity
  8
PEF-120A
  6
CONTINUOUS
100
AcDbLine
 10
147.7183284039453
 20
287.4033045073813
 30
0.0
 11
139.4183284039449
 21
287.4033045073813
 31
0.0
  0
LINE
  5
AA0
330
1F
100
AcDbEntity
  8
PEF-120A
  6
CONTINUOUS
100
AcDbLine
 10
139.4183284039449
 20
287.4033045073813
 30
0.0
 11
139.567059131939
 21
289.1033045073813
 31
0.0
  0
LINE
  5
AA1
330
1F
100
AcDbEntity
  8
PEF-120A
  6
CONTINUOUS
100
AcDbLine
 10
147.7183284039453
 20
287.4033045073813
 30
0.0
 11
147.5695976759513
 21
289.1033045073813
 31
0.0
  0
LINE
  5
AA2
330
1F
100
AcDbEntity
  8
PEF-120A
  6
CONTINUOUS
100
AcDbLine
 10
179.1932165682606
 20
265.4601622735857
 30
0.0
 11
177.997783162741
 21
260.998744067122
 31
0.0
  0
CIRCLE
  5
AA3
330
1F
100
AcDbEntity
  8
PEF-120A
  6
CONTINUOUS
100
AcDbCircle
 10
182.4592013692051
 20
262.1941774726415
 30
0.0
 40
3.899999999999991
  0
LINE
  5
AA4
330
1F
100
AcDbEntity
  8
PEF-120A
  6
CONTINUOUS
100
AcDbLine
 10
186.9206195756689
 20
263.389610878161
 30
0.0
 11
183.6546347747245
 21
266.6555956791055
 31
0.0
  0
LINE
  5
AA5
330
1F
100
AcDbEntity
  8
PEF-120A
  6
CONTINUOUS
100
AcDbLine
 10
170.5683284039451
 20
239.2648573201902
 30
0.0
 11
170.5683284039451
 21
276.8850178058566
 31
0.0
  0
CIRCLE
  5
AA6
330
1F
100
AcDbEntity
  8
PEF-120A
  6
HIDDEN
100
AcDbCircle
 10
182.4592013692051
 20
262.1941774726415
 30
0.0
 40
7.5
  0
ARC
  5
AA7
330
1F
100
AcDbEntity
  8
PEF-120A
  6
CENTER2
100
AcDbCircle
 10
143.5683284039451
 20
223.3033045073813
 30
0.0
 40
55.0
100
AcDbArc
 50
32.79951407893745
 51
68.55994678609366
  0
ARC
  5
AA8
330
1F
100
AcDbEntity
  8
PEF-120A
  6
CONTINUOUS
100
AcDbCircle
 10
182.4592013692051
 20
262.1941774726415
 30
0.0
 40
12.00000000000001
100
AcDbArc
 50
187.7329081986175
 51
270.0
  0
ARC
  5
AA9
330
1F
100
AcDbEntity
  8
PEF-120A
  6
CONTINUOUS
100
AcDbCircle
 10
182.4592013692051
 20
262.1941774726415
 30
0.0
 40
15.0
100
AcDbArc
 50
217.5591115539115
 51
270.0
  0
ARC
  5
AAA
330
1F
100
AcDbEntity
  8
PEF-120A
  6
CONTINUOUS
100
AcDbCircle
 10
174.568328403945
 20
237.2033045073813
 30
0.0
 40
4.500000000000007
100
AcDbArc
 50
152.7339555492678
 51
270.0
  0
ARC
  5
AAB
330
1F
100
AcDbEntity
  8
PEF-120A
  6
CONTINUOUS
100
AcDbCircle
 10
181.5683284039451
 20
228.0380297144075
 30
0.0
 40
10.75774402019199
100
AcDbArc
 50
75.27005290089497
 51
104.7299470991049
  0
ARC
  5
AAC
330
1F
100
AcDbEntity
  8
PEF-120A
  6
CONTINUOUS
100
AcDbCircle
 10
181.5683284039451
 20
232.827263751649
 30
0.0
 40
9.413026017668686
100
AcDbArc
 50
69.603598791582
 51
110.396401208418
  0
ARC
  5
AAD
330
1F
100
AcDbEntity
  8
PEF-120A
  6
CONTINUOUS
100
AcDbCircle
 10
181.5683284039451
 20
234.3800277089128
 30
0.0
 40
8.015553424762067
100
AcDbArc
 50
69.60359879158186
 51
110.3964012084181
  0
LINE
  5
AAE
330
1F
100
AcDbEntity
  8
PEF-120A
  6
CONTINUOUS
100
AcDbLine
 10
178.0683284039449
 20
241.334423111459
 30
0.0
 11
178.0683284039449
 21
238.4422203440063
 31
0.0
  0
LINE
  5
AAF
330
1F
100
AcDbEntity
  8
PEF-120A
  6
CONTINUOUS
100
AcDbLine
 10
175.5683284039452
 20
232.7033045073813
 30
0.0
 11
175.568328403945
 21
238.4422203440063
 31
0.0
  0
ARC
  5
AB0
330
1F
100
AcDbEntity
  8
PEF-120A
  6
CONTINUOUS
100
AcDbCircle
 10
178.4051524280744
 20
241.334423111459
 30
0.0
 40
0.3368240241293634
100
AcDbArc
 50
110.3964012084181
 51
180.0
  0
ARC
  5
AB1
330
1F
100
AcDbEntity
  8
PEF-120A
  6
CONTINUOUS
100
AcDbCircle
 10
178.8747624901865
 20
241.6242008593458
 30
0.0
 40
0.2868186016999031
100
AcDbArc
 50
110.3964012084184
 51
116.4778617607516
  0
LINE
  5
AB2
330
1F
100
AcDbEntity
  8
PEF-120A
  6
CONTINUOUS
100
AcDbLine
 10
178.2549787664851
 20
241.6359165518444
 30
0.0
 11
178.7468838457204
 21
241.8809341111278
 31
0.0
  0
LINE
  5
AB3
330
1F
100
AcDbEntity
  8
PEF-120A
  6
CONTINUOUS
100
AcDbLine
 10
190.068328403945
 20
241.334423111459
 30
0.0
 11
190.068328403945
 21
238.442220344006
 31
0.0
  0
LINE
  5
AB4
330
1F
100
AcDbEntity
  8
PEF-120A
  6
CONTINUOUS
100
AcDbLine
 10
185.0683284039449
 20
241.334423111459
 30
0.0
 11
185.0683284039449
 21
238.4422203440063
 31
0.0
  0
ARC
  5
AB5
330
1F
100
AcDbEntity
  8
PEF-120A
  6
CONTINUOUS
100
AcDbCircle
 10
184.7315043798156
 20
241.334423111459
 30
0.0
 40
0.3368240241293705
100
AcDbArc
 50
0.0
 51
69.60359879158186
  0
ARC
  5
AB6
330
1F
100
AcDbEntity
  8
PEF-120A
  6
CONTINUOUS
100
AcDbCircle
 10
184.2618943177035
 20
241.6242008593458
 30
0.0
 40
0.2868186016999047
100
AcDbArc
 50
63.52213823924885
 51
69.60359879158172
  0
LINE
  5
AB7
330
1F
100
AcDbEntity
  8
PEF-120A
  6
CONTINUOUS
100
AcDbLine
 10
184.8816780414051
 20
241.6359165518445
 30
0.0
 11
184.3897729621696
 21
241.880934111128
 31
0.0
  0
ARC
  5
AB8
330
1F
100
AcDbEntity
  8
PEF-120A
  6
CONTINUOUS
100
AcDbCircle
 10
190.4051524280744
 20
241.334423111459
 30
0.0
 40
0.3368240241293634
100
AcDbArc
 50
110.3964012084181
 51
180.0
  0
ARC
  5
AB9
330
1F
100
AcDbEntity
  8
PEF-120A
  6
CONTINUOUS
100
AcDbCircle
 10
190.8747624901864
 20
241.6242008593457
 30
0.0
 40
0.2868186016999014
100
AcDbArc
 50
110.396401208418
 51
116.4778617607511
  0
LINE
  5
ABA
330
1F
100
AcDbEntity
  8
PEF-120A
  6
CONTINUOUS
100
AcDbLine
 10
190.2549787664849
 20
241.6359165518444
 30
0.0
 11
190.7468838457204
 21
241.8809341111278
 31
0.0
  0
LINE
  5
ABB
330
1F
100
AcDbEntity
  8
PEF-120A
  6
CONTINUOUS
100
AcDbLine
 10
181.2637679636856
 20
257.7327592661776
 30
0.0
 11
185.7251861701494
 21
258.9281926716969
 31
0.0
  0
CIRCLE
  5
ABC
330
1F
100
AcDbEntity
  8
PEF-120A
  6
CONTINUOUS
100
AcDbCircle
 10
182.4592013692051
 20
262.1941774726415
 30
0.0
 40
2.5
  0
CIRCLE
  5
ABD
330
1F
100
AcDbEntity
  8
PEF-120A
  6
CONTINUOUS
100
AcDbCircle
 10
182.4592013692051
 20
262.1941774726415
 30
0.0
 40
2.099999999999992
  0
LINE
  5
ABE
330
1F
100
AcDbEntity
  8
PEF-120A
  6
CONTINUOUS
100
AcDbLine
 10
177.997783162741
 20
260.998744067122
 30
0.0
 11
181.2637679636856
 21
257.7327592661776
 31
0.0
  0
LINE
  5
ABF
330
1F
100
AcDbEntity
  8
PEF-120A
  6
CONTINUOUS
100
AcDbLine
 10
185.7251861701494
 20
258.9281926716969
 30
0.0
 11
186.9206195756689
 21
263.389610878161
 31
0.0
  0
ARC
  5
AC0
330
1F
100
AcDbEntity
  8
PEF-120A
  6
CONTINUOUS
100
AcDbCircle
 10
168.459201369205
 20
281.1776895410669
 30
0.0
 40
2.000000000000003
100
AcDbArc
 50
9.338943623928546
 51
66.72821181568273
  0
ARC
  5
AC1
330
1F
100
AcDbEntity
  8
PEF-120A
  6
CONTINUOUS
100
AcDbCircle
 10
165.459201369205
 20
279.7040108931958
 30
0.0
 40
2.0
100
AcDbArc
 50
0.0
 51
68.78721433229292
  0
LINE
  5
AC2
330
1F
100
AcDbEntity
  8
PEF-120A
  6
CONTINUOUS
100
AcDbLine
 10
167.4592013692049
 20
278.3417109973751
 30
0.0
 11
167.4592013692049
 21
279.7040108931958
 31
0.0
  0
LINE
  5
AC3
330
1F
100
AcDbEntity
  8
PEF-120A
  6
CONTINUOUS
100
AcDbLine
 10
170.459201369205
 20
276.9398680733505
 30
0.0
 11
170.459201369205
 21
279.7225472457081
 31
0.0
  0
ARC
  5
AC4
330
1F
100
AcDbEntity
  8
PEF-120A
  6
CONTINUOUS
100
AcDbCircle
 10
165.459201369205
 20
282.3777463652512
 30
0.0
 40
2.000000000000011
100
AcDbArc
 50
12.27782989073967
 51
69.66709808249442
  0
LINE
  5
AC5
330
1F
100
AcDbEntity
  8
PEF-120A
  6
CONTINUOUS
100
AcDbLine
 10
183.6546347747245
 20
266.6555956791055
 30
0.0
 11
179.1932165682606
 21
265.4601622735857
 31
0.0
  0
LINE
  5
AC6
330
1F
100
AcDbEntity
  8
PEF-120A
  6
HIDDEN
100
AcDbLine
 10
177.155900510306
 20
267.4974783315406
 30
0.0
 11
183.8269578981179
 21
274.1685357193526
 31
0.0
  0
ARC
  5
AC8
330
1F
100
AcDbEntity
  8
PEF-120A
  6
CONTINUOUS
100
AcDbCircle
 10
210.7434726166671
 20
156.1281602946595
 30
0.0
 40
7.49999999999999
100
AcDbArc
 50
224.9999999999996
 51
45.0
  0
LINE
  5
AC9
330
1F
100
AcDbEntity
  8
PEF-120A
  6
CONTINUOUS
100
AcDbLine
 10
194.4335596159163
 20
183.0446750132083
 30
0.0
 11
216.0467734755661
 21
161.4314611535587
 31
0.0
  0
LINE
  5
ACA
330
1F
100
AcDbEntity
  8
PEF-120A
  6
CONTINUOUS
100
AcDbLine
 10
194.1264632587833
 20
167.7954221842375
 30
0.0
 11
208.268598882514
 21
153.6532865605065
 31
0.0
  0
LINE
  5
ACB
330
1F
100
AcDbEntity
  8
PEF-120A
  6
CONTINUOUS
100
AcDbLine
 10
199.076210727089
 20
172.7451696525434
 30
0.0
 11
213.21834635082
 21
158.6030340288123
 31
0.0
  0
LINE
  5
ACC
330
1F
100
AcDbEntity
  8
PEF-120A
  6
CENTER2
100
AcDbLine
 10
195.5267207662645
 20
155.0535440679879
 30
0.0
 11
211.0830699523685
 21
170.6098932540919
 31
0.0
  0
ARC
  5
ACD
330
1F
100
AcDbEntity
  8
PEF-120A
  6
CONTINUOUS
100
AcDbCircle
 10
210.7434726166671
 20
156.1281602946595
 30
0.0
 40
3.499999999999998
100
AcDbArc
 50
224.9999999999996
 51
45.0
  0
ARC
  5
ACE
330
1F
100
AcDbEntity
  8
PEF-120A
  6
CONTINUOUS
100
AcDbCircle
 10
143.5683284039451
 20
223.3033045073813
 30
0.0
 40
59.99999999999996
100
AcDbArc
 50
1.415064916623094
 51
9.013470262298488
  0
LINE
  5
ACF
330
1F
100
AcDbEntity
  8
PEF-120A
  6
CENTER2
100
AcDbLine
 10
193.5683284039448
 20
227.2558801159379
 30
0.0
 11
193.5683284039449
 21
243.3560083416002
 31
0.0
  0
ARC
  5
AD0
330
1F
100
AcDbEntity
  8
PEF-120A
  6
CONTINUOUS
100
AcDbCircle
 10
201.4427134376304
 20
198.4124315421212
 30
0.0
 40
1.999999999999999
100
AcDbArc
 50
279.3389436239289
 51
336.7282118156823
  0
ARC
  5
AD1
330
1F
100
AcDbEntity
  8
PEF-120A
  6
CONTINUOUS
100
AcDbCircle
 10
143.5683284039451
 20
223.3033045073813
 30
0.0
 40
59.99999999999996
100
AcDbArc
 50
333.2563160495968
 51
358.5849350833761
  0
ARC
  5
AD2
330
1F
100
AcDbEntity
  8
PEF-120A
  6
CONTINUOUS
100
AcDbCircle
 10
202.6427702618149
 20
201.4124315421212
 30
0.0
 40
2.0
100
AcDbArc
 50
282.2778298907375
 51
339.6670980824946
  0
LINE
  5
AD3
330
1F
100
AcDbEntity
  8
PEF-120A
  6
CONTINUOUS
100
AcDbLine
 10
197.204891969914
 20
196.412431542121
 30
0.0
 11
199.9875711422719
 21
196.4124315421213
 31
0.0
  0
LINE
  5
AD4
330
1F
100
AcDbEntity
  8
PEF-120A
  6
CONTINUOUS
100
AcDbLine
 10
198.6067348939388
 20
199.4124315421213
 30
0.0
 11
199.9690347897594
 21
199.4124315421213
 31
0.0
  0
ARC
  5
AD5
330
1F
100
AcDbEntity
  8
PEF-120A
  6
CONTINUOUS
100
AcDbCircle
 10
199.9690347897594
 20
201.4124315421212
 30
0.0
 40
1.999999999999995
100
AcDbArc
 50
270.0
 51
338.7872143322923
  0
LINE
  5
AD6
330
1F
100
AcDbEntity
  8
PEF-120A
  6
CONTINUOUS
100
AcDbLine
 10
202.0683284039451
 20
223.3033045073813
 30
0.0
 11
203.5500302767669
 21
221.8216026345595
 31
0.0
  0
LINE
  5
AD7
330
1F
100
AcDbEntity
  8
PEF-120A
  6
CONTINUOUS
100
AcDbLine
 10
202.0683284039451
 20
223.3033045073813
 30
0.0
 11
203.5500302767669
 21
224.785006380203
 31
0.0
  0
ARC
  5
AD8
330
1F
100
AcDbEntity
  8
PEF-120A
  6
CONTINUOUS
100
AcDbCircle
 10
199.7619810370071
 20
223.3033045073813
 30
0.0
 40
10.40634736693796
100
AcDbArc
 50
337.3871256045213
 51
22.61287439547862
  0
LINE
  5
AD9
330
1F
100
AcDbEntity
  8
PEF-120A
  6
CONTINUOUS
100
AcDbLine
 10
207.6683284039449
 20
219.1533045073811
 30
0.0
 11
207.6683284039449
 21
227.4533045073815
 31
0.0
  0
LINE
  5
ADA
330
1F
100
AcDbEntity
  8
PEF-120A
  6
CONTINUOUS
100
AcDbLine
 10
207.6683284039449
 20
219.1533045073811
 30
0.0
 11
209.368328403945
 21
219.302035235375
 31
0.0
  0
LINE
  5
ADB
330
1F
100
AcDbEntity
  8
PEF-120A
  6
CONTINUOUS
100
AcDbLine
 10
207.6683284039449
 20
227.4533045073815
 30
0.0
 11
209.368328403945
 21
227.3045737793874
 31
0.0
  0
LINE
  5
ADC
330
1F
100
AcDbEntity
  8
PEF-120A
  6
CONTINUOUS
100
AcDbLine
 10
194.4335596159161
 20
263.5619340015542
 30
0.0
 11
216.0467734755659
 21
285.1751478612044
 31
0.0
  0
ARC
  5
ADD
330
1F
100
AcDbEntity
  8
PEF-120A
  6
CONTINUOUS
100
AcDbCircle
 10
202.6427702618148
 20
245.1941774726413
 30
0.0
 40
1.999999999999987
100
AcDbArc
 50
20.33290191750539
 51
77.7221701092592
  0
LINE
  5
ADE
330
1F
100
AcDbEntity
  8
PEF-120A
  6
CONTINUOUS
100
AcDbLine
 10
197.068328403945
 20
241.334423111459
 30
0.0
 11
197.068328403945
 21
238.442220344006
 31
0.0
  0
LINE
  5
ADF
330
1F
100
AcDbEntity
  8
PEF-120A
  6
CONTINUOUS
100
AcDbLine
 10
199.5683284039452
 20
238.4422203440063
 30
0.0
 11
199.5683284039452
 21
232.7033045073811
 31
0.0
  0
ARC
  5
AE0
330
1F
100
AcDbEntity
  8
PEF-120A
  6
CONTINUOUS
100
AcDbCircle
 10
196.2618943177037
 20
241.6242008593457
 30
0.0
 40
0.2868186016999047
100
AcDbArc
 50
63.52213823924885
 51
69.603598791582
  0
LINE
  5
AE1
330
1F
100
AcDbEntity
  8
PEF-120A
  6
CONTINUOUS
100
AcDbLine
 10
196.8816780414051
 20
241.6359165518444
 30
0.0
 11
196.3897729621696
 21
241.8809341111278
 31
0.0
  0
ARC
  5
AE2
330
1F
100
AcDbEntity
  8
PEF-120A
  6
CONTINUOUS
100
AcDbCircle
 10
196.7315043798155
 20
241.334423111459
 30
0.0
 40
0.3368240241293705
100
AcDbArc
 50
0.0
 51
69.60359879158186
  0
ARC
  5
AE3
330
1F
100
AcDbEntity
  8
PEF-120A
  6
CONTINUOUS
100
AcDbCircle
 10
199.9690347897593
 20
245.1941774726413
 30
0.0
 40
2.000000000000006
100
AcDbArc
 50
21.2127856677075
 51
90.0
  0
ARC
  5
AE4
330
1F
100
AcDbEntity
  8
PEF-120A
  6
CONTINUOUS
100
AcDbCircle
 10
201.4427134376304
 20
248.1941774726414
 30
0.0
 40
2.000000000000004
100
AcDbArc
 50
23.27178818431749
 51
80.66105637607092
  0
ARC
  5
AE5
330
1F
100
AcDbEntity
  8
PEF-120A
  6
CONTINUOUS
100
AcDbCircle
 10
210.7434726166669
 20
290.4784487201033
 30
0.0
 40
3.500000000000003
100
AcDbArc
 50
315.0000000000003
 51
135.0000000000002
  0
ARC
  5
AE6
330
1F
100
AcDbEntity
  8
PEF-120A
  6
CONTINUOUS
100
AcDbCircle
 10
210.7434726166669
 20
290.4784487201033
 30
0.0
 40
7.500000000000007
100
AcDbArc
 50
315.0000000000003
 51
135.0000000000002
  0
LINE
  5
AE7
330
1F
100
AcDbEntity
  8
PEF-120A
  6
CONTINUOUS
100
AcDbLine
 10
199.0762107270889
 20
273.8614393622195
 30
0.0
 11
213.2183463508197
 21
288.0035749859505
 31
0.0
  0
LINE
  5
AE8
330
1F
100
AcDbEntity
  8
PEF-120A
  6
CONTINUOUS
100
AcDbLine
 10
194.1264632587829
 20
278.8111868305254
 30
0.0
 11
208.2685988825139
 21
292.9533224542563
 31
0.0
  0
LINE
  5
AE9
330
1F
100
AcDbEntity
  8
PEF-120A
  6
CENTER2
100
AcDbLine
 10
211.8180888433385
 20
275.2616968697008
 30
0.0
 11
196.2617396572344
 21
290.8180460558048
 31
0.0
  0
LINE
  5
AF8
330
1F
100
AcDbEntity
  8
PEF-120A
  6
CONTINUOUS
100
AcDbLine
 10
323.1772734592698
 20
164.0926312636341
 30
0.0
 11
323.1772734592706
 21
282.0926312636341
 31
0.0
  0
LINE
  5
AF9
330
1F
100
AcDbEntity
  8
PEF-120A
  6
CONTINUOUS
100
AcDbLine
 10
321.6772734592705
 20
248.0926312636341
 30
0.0
 11
321.6772734592701
 21
198.0926312636341
 31
0.0
  0
LINE
  5
B07
330
1F
100
AcDbEntity
  8
PEF-120A
  6
CONTINUOUS
100
AcDbLine
 10
325.5607650690728
 20
163.092631263634
 30
0.0
 11
324.1772734592698
 21
163.0926312636341
 31
0.0
  0
LINE
  5
B08
330
1F
100
AcDbEntity
  8
PEF-120A
  6
CONTINUOUS
100
AcDbLine
 10
323.1772734592698
 20
164.5926312636341
 30
0.0
 11
325.5607650690728
 21
164.5926312636339
 31
0.0
  0
LINE
  5
B09
330
1F
100
AcDbEntity
  8
PEF-120A
  6
CONTINUOUS
100
AcDbLine
 10
323.1772734592698
 20
164.0926312636341
 30
0.0
 11
324.1772734592698
 21
163.0926312636341
 31
0.0
  0
LINE
  5
B65
330
1F
100
AcDbEntity
  8
PEF-120A
  6
CONTINUOUS
100
AcDbLine
 10
321.6772734592701
 20
198.0926312636341
 30
0.0
 11
323.1772734592701
 21
198.0926312636341
 31
0.0
  0
LINE
  5
BA2
330
1F
100
AcDbEntity
  8
PEF-120A
  6
CONTINUOUS
100
AcDbLine
 10
323.1772734592705
 20
248.0926312636341
 30
0.0
 11
321.6772734592705
 21
248.0926312636341
 31
0.0
  0
LINE
  5
BC6
330
1F
100
AcDbEntity
  8
PEF-120A
  6
CONTINUOUS
100
AcDbLine
 10
323.1772734592706
 20
282.0926312636341
 30
0.0
 11
324.1772734592708
 21
283.0926312636341
 31
0.0
  0
LINE
  5
BC7
330
1F
100
AcDbEntity
  8
PEF-120A
  6
HIDDEN
100
AcDbLine
 10
323.1772734592706
 20
281.5926312636341
 30
0.0
 11
325.560765069076
 21
281.5926312636341
 31
0.0
  0
LINE
  5
BC8
330
1F
100
AcDbEntity
  8
PEF-120A
  6
CONTINUOUS
100
AcDbLine
 10
325.5607650690758
 20
276.6743445621092
 30
0.0
 11
323.1772734592706
 21
276.6743445621094
 31
0.0
  0
LINE
  5
BCB
330
1F
100
AcDbEntity
  8
PEF-120A
  6
CONTINUOUS
100
AcDbLine
 10
325.5607650690762
 20
283.0926312636341
 30
0.0
 11
324.1772734592708
 21
283.0926312636341
 31
0.0
  0
LINE
  5
BCC
330
1F
100
AcDbEntity
  8
PEF-120A
  6
CONTINUOUS
100
AcDbLine
 10
325.5607650690762
 20
287.4033045073818
 30
0.0
 11
325.5607650690727
 21
159.2033045073818
 31
0.0
  0
TEXT
  5
BF0
330
1F
100
AcDbEntity
  8
PEF-120A
100
AcDbText
 10
256.6180618061806
 20
147.8969468375408
 30
0.0
 40
3.750375037503748
  1
PEF-120AR
100
AcDbText
  0
LINE
  5
BF2
330
1F
100
AcDbEntity
  8
PEF-120A
  6
CONTINUOUS
100
AcDbLine
 10
457.2439233720278
 20
163.76759029442
 30
0.0
 11
458.8882952633438
 21
153.3971495572553
 31
0.0
  0
LINE
  5
BF3
330
1F
100
AcDbEntity
  8
PEF-120A
  6
CONTINUOUS
100
AcDbLine
 10
461.5724306514147
 20
165.7860063871777
 30
0.0
 11
468.4596672733598
 21
157.8603536245759
 31
0.0
  0
LINE
  5
BF4
330
1F
100
AcDbEntity
  8
PEF-120A
  6
CONTINUOUS
100
AcDbLine
 10
472.9886117091323
 20
161.7959174085445
 30
0.0
 11
466.1013750871871
 21
169.7215701711463
 31
0.0
  0
LINE
  5
BF5
330
1F
100
AcDbEntity
  8
PEF-120A
  6
CONTINUOUS
100
AcDbLine
 10
452.9623291278212
 20
152.457508476503
 30
0.0
 11
451.3179572365053
 21
162.8279492136682
 31
0.0
  0
ARC
  5
BF6
330
1F
100
AcDbEntity
  8
PEF-120A
  6
CONTINUOUS
100
AcDbCircle
 10
396.5607650690758
 20
161.917891300983
 30
0.0
 40
0.9999999999999978
100
AcDbArc
 50
93.83459945944418
 51
180.0
  0
LINE
  5
BF7
330
1F
100
AcDbEntity
  8
PEF-120A
  6
CONTINUOUS
100
AcDbLine
 10
435.2607650690758
 20
191.9124315421208
 30
0.0
 11
435.260765069075
 21
148.6281602946588
 31
0.0
  0
LINE
  5
BF8
330
1F
100
AcDbEntity
  8
PEF-120A
  6
CONTINUOUS
100
AcDbLine
 10
437.5607650690753
 20
148.6281602946585
 30
0.0
 11
437.5607650690756
 21
191.9124315421208
 31
0.0
  0
LINE
  5
BF9
330
1F
100
AcDbEntity
  8
PEF-120A
  6
CENTER2
100
AcDbLine
 10
389.5607650690751
 20
151.5728828206341
 30
0.0
 11
389.5607650690753
 21
167.5728828206343
 31
0.0
  0
LINE
  5
BFD
330
1F
100
AcDbEntity
  8
PEF-120A
  6
CONTINUOUS
100
AcDbLine
 10
395.5607650690753
 20
159.2033045073813
 30
0.0
 11
395.5607650690763
 21
287.4033045073811
 31
0.0
  0
LINE
  5
BFE
330
1F
100
AcDbEntity
  8
PEF-120A
  6
CONTINUOUS
100
AcDbLine
 10
422.5607650690752
 20
159.3033045073813
 30
0.0
 11
422.5607650690761
 21
287.3033045073811
 31
0.0
  0
LINE
  5
C0F
330
1F
100
AcDbEntity
  8
PEF-120A
  6
CONTINUOUS
100
AcDbLine
 10
421.5607650690753
 20
158.3033045073809
 30
0.0
 11
396.060765069075
 21
158.3033045073813
 31
0.0
  0
ARC
  5
C11
330
1F
100
AcDbEntity
  8
PEF-120A
  6
CONTINUOUS
100
AcDbCircle
 10
389.5607650690756
 20
167.109651874319
 30
0.0
 40
10.4063473669379
100
AcDbArc
 50
247.3871256045197
 51
292.6128743954798
  0
LINE
  5
C12
330
1F
100
AcDbEntity
  8
PEF-120A
  6
CONTINUOUS
100
AcDbLine
 10
395.5607650690753
 20
160.8033045073813
 30
0.0
 11
383.560765069075
 21
160.8033045073814
 31
0.0
  0
LINE
  5
C14
330
1F
100
AcDbEntity
  8
PEF-120A
  6
CONTINUOUS
100
AcDbLine
 10
385.4107650690754
 20
159.2033045073814
 30
0.0
 11
385.5594957970694
 21
157.5033045073814
 31
0.0
  0
LINE
  5
C15
330
1F
100
AcDbEntity
  8
PEF-120A
  6
CONTINUOUS
100
AcDbLine
 10
393.7107650690757
 20
159.2033045073812
 30
0.0
 11
393.5620343410817
 21
157.5033045073813
 31
0.0
  0
LINE
  5
C16
330
1F
100
AcDbEntity
  8
PEF-120A
  6
CONTINUOUS
100
AcDbLine
 10
396.060765069075
 20
158.3033045073813
 30
0.0
 11
395.5607650690751
 21
158.8033045073813
 31
0.0
  0
LINE
  5
C17
330
1F
100
AcDbEntity
  8
PEF-120A
  6
CONTINUOUS
100
AcDbLine
 10
395.5607650690753
 20
160.8033045073813
 30
0.0
 11
395.5607650690751
 21
158.8033045073813
 31
0.0
  0
LINE
  5
C18
330
1F
100
AcDbEntity
  8
PEF-120A
  6
CONTINUOUS
100
AcDbLine
 10
421.5607650690753
 20
158.3033045073809
 30
0.0
 11
422.5607650690752
 21
159.3033045073809
 31
0.0
  0
LINE
  5
C19
330
1F
100
AcDbEntity
  8
PEF-120A
  6
HIDDEN
100
AcDbLine
 10
435.260765069075
 20
152.6281602946585
 30
0.0
 11
437.5607650690751
 21
152.6281602946585
 31
0.0
  0
LINE
  5
C1A
330
1F
100
AcDbEntity
  8
PEF-120A
  6
CONTINUOUS
100
AcDbLine
 10
435.260765069075
 20
148.6281602946588
 30
0.0
 11
437.5607650690753
 21
148.6281602946585
 31
0.0
  0
LINE
  5
C5E
330
1F
100
AcDbEntity
  8
PEF-120A
  6
CONTINUOUS
100
AcDbLine
 10
459.6233095554689
 20
142.3762714620048
 30
0.0
 11
458.8402753215087
 21
147.3145765749405
 31
0.0
  0
LINE
  5
C5F
330
1F
100
AcDbEntity
  8
PEF-120A
  6
CONTINUOUS
100
AcDbLine
 10
459.9940238648667
 20
147.7008146935031
 30
0.0
 11
460.8085027825735
 21
142.5641996781552
 31
0.0
  0
LINE
  5
C60
330
1F
100
AcDbEntity
  8
PEF-120A
  6
CONTINUOUS
100
AcDbLine
 10
454.8896312311604
 20
146.6881491877724
 30
0.0
 11
455.6726654651201
 21
141.7498440748366
 31
0.0
  0
LINE
  5
C61
330
1F
100
AcDbEntity
  8
PEF-120A
  6
CONTINUOUS
100
AcDbLine
 10
453.6729933203083
 20
146.6985308740358
 30
0.0
 11
454.4874722380155
 21
141.561915858686
 31
0.0
  0
LINE
  5
C62
330
1F
100
AcDbEntity
  8
PEF-120A
  6
CONTINUOUS
100
AcDbLine
 10
455.6726654651201
 20
141.7498440748365
 30
0.0
 11
454.4874722380155
 21
141.561915858686
 31
0.0
  0
LINE
  5
C63
330
1F
100
AcDbEntity
  8
PEF-120A
  6
CONTINUOUS
100
AcDbLine
 10
460.8085027825735
 20
142.5641996781552
 30
0.0
 11
459.6233095554686
 21
142.3762714620048
 31
0.0
  0
LINE
  5
C64
330
1F
100
AcDbEntity
  8
PEF-120A
  6
CONTINUOUS
100
AcDbLine
 10
458.8882952633438
 20
153.3971495572553
 30
0.0
 11
452.9623291278212
 21
152.457508476503
 31
0.0
  0
ARC
  5
C65
330
1F
100
AcDbEntity
  8
PEF-120A
  6
CONTINUOUS
100
AcDbCircle
 10
456.8649532763346
 20
147.0013628813565
 30
0.0
 40
1.999999999999909
100
AcDbArc
 50
9.010000000000998
 51
189.0099999999999
  0
LINE
  5
C66
330
1F
100
AcDbEntity
  8
PEF-120A
  6
CONTINUOUS
100
AcDbLine
 10
453.5578736695319
 20
150.3030954656483
 30
0.0
 11
453.8640668226995
 21
152.6004910320549
 31
0.0
  0
LINE
  5
C67
330
1F
100
AcDbEntity
  8
PEF-120A
  6
CONTINUOUS
100
AcDbLine
 10
453.6729933203083
 20
146.6985308740358
 30
0.0
 11
453.5578736695319
 21
150.3030954656483
 31
0.0
  0
LINE
  5
C68
330
1F
100
AcDbEntity
  8
PEF-120A
  6
CONTINUOUS
100
AcDbLine
 10
458.9884284381086
 20
151.1641824572218
 30
0.0
 11
457.986557568465
 21
153.2541670017038
 31
0.0
  0
LINE
  5
C69
330
1F
100
AcDbEntity
  8
PEF-120A
  6
CONTINUOUS
100
AcDbLine
 10
459.9940238648667
 20
147.7008146935031
 30
0.0
 11
458.9884284381086
 21
151.1641824572218
 31
0.0
  0
LINE
  5
C6A
330
1F
100
AcDbEntity
  8
PEF-120A
  6
CONTINUOUS
100
AcDbLine
 10
474.2561791718528
 20
159.9548738322121
 30
0.0
 11
472.2994548995337
 21
161.1970536733422
 31
0.0
  0
LINE
  5
C6B
330
1F
100
AcDbEntity
  8
PEF-120A
  6
CONTINUOUS
100
AcDbLine
 10
468.4596672733599
 20
157.8603536245759
 30
0.0
 11
472.9886117091323
 21
161.7959174085445
 31
0.0
  0
LINE
  5
C6C
330
1F
100
AcDbEntity
  8
PEF-120A
  6
CONTINUOUS
100
AcDbLine
 10
472.1125642971473
 20
153.3517829027365
 30
0.0
 11
475.5239027294432
 21
149.4261033661941
 31
0.0
  0
ARC
  5
C6D
330
1F
100
AcDbEntity
  8
PEF-120A
  6
CONTINUOUS
100
AcDbCircle
 10
474.6597032752148
 20
155.2991910807878
 30
0.0
 40
1.999999999999986
100
AcDbArc
 50
40.98999999999903
 51
220.9900000000017
  0
LINE
  5
C6E
330
1F
100
AcDbEntity
  8
PEF-120A
  6
CONTINUOUS
100
AcDbLine
 10
472.1125642971473
 20
153.3517829027365
 30
0.0
 11
470.1058549479508
 21
156.3483235777364
 31
0.0
  0
LINE
  5
C6F
330
1F
100
AcDbEntity
  8
PEF-120A
  6
CONTINUOUS
100
AcDbLine
 10
470.1058549479508
 20
156.3483235777364
 30
0.0
 11
469.1488240829583
 21
158.4592173597788
 31
0.0
  0
LINE
  5
C70
330
1F
100
AcDbEntity
  8
PEF-120A
  6
CONTINUOUS
100
AcDbLine
 10
479.4489879071129
 20
152.8369253123003
 30
0.0
 11
480.3547767942676
 21
153.6240380690941
 31
0.0
  0
LINE
  5
C71
330
1F
100
AcDbEntity
  8
PEF-120A
  6
CONTINUOUS
100
AcDbLine
 10
476.4296916165979
 20
150.2132161229878
 30
0.0
 11
473.1500551299571
 21
153.9873364861316
 31
0.0
  0
LINE
  5
C72
330
1F
100
AcDbEntity
  8
PEF-120A
  6
CONTINUOUS
100
AcDbLine
 10
476.1693514204723
 20
156.6110456754439
 30
0.0
 11
479.4489879071129
 21
152.8369253123004
 31
0.0
  0
LINE
  5
C73
330
1F
100
AcDbEntity
  8
PEF-120A
  6
CONTINUOUS
100
AcDbLine
 10
475.5239027294432
 20
149.4261033661941
 30
0.0
 11
476.4296916165979
 21
150.2132161229878
 31
0.0
  0
LINE
  5
C74
330
1F
100
AcDbEntity
  8
PEF-120A
  6
CONTINUOUS
100
AcDbLine
 10
476.9434383619707
 20
157.5497176056376
 30
0.0
 11
480.3547767942676
 21
153.6240380690941
 31
0.0
  0
LINE
  5
C75
330
1F
100
AcDbEntity
  8
PEF-120A
  6
CONTINUOUS
100
AcDbLine
 10
476.9434383619707
 20
157.5497176056376
 30
0.0
 11
474.2561791718528
 21
159.9548738322121
 31
0.0
  0
LINE
  5
C76
330
1F
100
AcDbEntity
  8
PEF-120A
  6
CONTINUOUS
100
AcDbLine
 10
433.8896124070338
 20
213.5860327791399
 30
0.0
 11
441.6539538622826
 21
196.9353487951595
 31
0.0
  0
LINE
  5
C77
330
1F
100
AcDbEntity
  8
PEF-120A
  6
CONTINUOUS
100
AcDbLine
 10
438.4211513422171
 20
215.6991240878435
 30
0.0
 11
446.185492797466
 21
199.0484401038632
 31
0.0
  0
LINE
  5
C81
330
1F
100
AcDbEntity
  8
PEF-120A
  6
CONTINUOUS
100
AcDbLine
 10
395.5607650690756
 20
245.8027083241677
 30
0.0
 11
395.5607650690753
 21
201.253493185283
 31
0.0
  0
LINE
  5
C84
330
1F
100
AcDbEntity
  8
PEF-120A
  6
CONTINUOUS
100
AcDbLine
 10
395.5607650690756
 20
199.0635943328186
 30
0.0
 11
412.8371571328986
 21
196.6529349750759
 31
0.0
  0
LINE
  5
C85
330
1F
100
AcDbEntity
  8
PEF-120A
  6
CONTINUOUS
100
AcDbLine
 10
395.5607650690756
 20
224.7863829082759
 30
0.0
 11
422.5607650690758
 21
224.7863829082756
 31
0.0
  0
LINE
  5
C86
330
1F
100
AcDbEntity
  8
PEF-120A
  6
CONTINUOUS
100
AcDbLine
 10
395.5607650690756
 20
221.8202261064869
 30
0.0
 11
422.5607650690758
 21
221.8202261064865
 31
0.0
  0
LINE
  5
C87
330
1F
100
AcDbEntity
  8
PEF-120A
  6
CONTINUOUS
100
AcDbLine
 10
395.5607650690756
 20
223.3033045073813
 30
0.0
 11
422.5607650690758
 21
223.3033045073809
 31
0.0
  0
LINE
  5
C88
330
1F
100
AcDbEntity
  8
PEF-120A
  6
CONTINUOUS
100
AcDbLine
 10
396.4938886339468
 20
162.9156525662285
 30
0.0
 11
412.6945179393336
 21
164.0015238788658
 31
0.0
  0
ARC
  5
CB8
330
1F
100
AcDbEntity
  8
PEF-120A
  6
CONTINUOUS
100
AcDbCircle
 10
397.5607650690756
 20
200.8039006905945
 30
0.0
 40
2.0
100
AcDbArc
 50
180.0
 51
262.0565281894112
  0
ARC
  5
CCB
330
1F
100
AcDbEntity
  8
PEF-120A
  6
CONTINUOUS
100
AcDbCircle
 10
412.5607650690754
 20
194.672125184345
 30
0.0
 40
2.0
100
AcDbArc
 50
0.0
 51
82.0565281894113
  0
LINE
  5
CCF
330
1F
100
AcDbEntity
  8
PEF-120A
  6
CENTER2
100
AcDbLine
 10
405.3745098871318
 20
184.4124315421208
 30
0.0
 11
439.7773841386288
 21
184.4124315421208
 31
0.0
  0
LINE
  5
CD0
330
1F
100
AcDbEntity
  8
PEF-120A
  6
CENTER2
100
AcDbLine
 10
408.5647703642946
 20
168.3033045073812
 30
0.0
 11
428.8019621799612
 21
168.303304507381
 31
0.0
  0
LINE
  5
CD1
330
1F
100
AcDbEntity
  8
PEF-120A
  6
CONTINUOUS
100
AcDbLine
 10
414.5607650690756
 20
192.262431542121
 30
0.0
 11
414.5607650690756
 21
176.562431542121
 31
0.0
  0
LINE
  5
CD2
330
1F
100
AcDbEntity
  8
PEF-120A
  6
CONTINUOUS
100
AcDbLine
 10
413.5607650690756
 20
176.562431542121
 30
0.0
 11
413.5607650690756
 21
192.262431542121
 31
0.0
  0
LINE
  5
CD3
330
1F
100
AcDbEntity
  8
PEF-120A
  6
CONTINUOUS
100
AcDbLine
 10
414.5607650690753
 20
194.672125184345
 30
0.0
 11
414.5607650690753
 21
165.997046409357
 31
0.0
  0
ARC
  5
CD4
330
1F
100
AcDbEntity
  8
PEF-120A
  6
CONTINUOUS
100
AcDbCircle
 10
412.5607650690755
 20
165.997046409357
 30
0.0
 40
1.999999999999993
100
AcDbArc
 50
273.834599459444
 51
0.0
  0
LINE
  5
CD5
330
1F
100
AcDbEntity
  8
PEF-120A
  6
CONTINUOUS
100
AcDbLine
 10
414.5607650690756
 20
176.562431542121
 30
0.0
 11
413.5607650690756
 21
176.562431542121
 31
0.0
  0
LINE
  5
CD6
330
1F
100
AcDbEntity
  8
PEF-120A
  6
CONTINUOUS
100
AcDbLine
 10
413.5607650690756
 20
189.031231542121
 30
0.0
 11
409.9757642490756
 21
189.031231542121
 31
0.0
  0
LINE
  5
CD7
330
1F
100
AcDbEntity
  8
PEF-120A
  6
CONTINUOUS
100
AcDbLine
 10
413.5607650690756
 20
186.721831542121
 30
0.0
 11
409.9757642490756
 21
186.7218315421211
 31
0.0
  0
LINE
  5
CD8
330
1F
100
AcDbEntity
  8
PEF-120A
  6
CONTINUOUS
100
AcDbLine
 10
413.5607650690756
 20
179.793631542121
 30
0.0
 11
409.9757642490756
 21
179.793631542121
 31
0.0
  0
LINE
  5
CD9
330
1F
100
AcDbEntity
  8
PEF-120A
  6
CONTINUOUS
100
AcDbLine
 10
413.5607650690756
 20
182.103031542121
 30
0.0
 11
409.9757642490756
 21
182.103031542121
 31
0.0
  0
ARC
  5
CDA
330
1F
100
AcDbEntity
  8
PEF-120A
  6
CONTINUOUS
100
AcDbCircle
 10
411.9757640772544
 20
187.876531542121
 30
0.0
 40
2.309400796890267
100
AcDbArc
 50
150.0000094361475
 51
209.9999905638513
  0
LINE
  5
CDB
330
1F
100
AcDbEntity
  8
PEF-120A
  6
CONTINUOUS
100
AcDbLine
 10
409.5607650690756
 20
188.3124315421211
 30
0.0
 11
409.5607650690756
 21
180.512431542121
 31
0.0
  0
LINE
  5
CDC
330
1F
100
AcDbEntity
  8
PEF-120A
  6
CONTINUOUS
100
AcDbLine
 10
409.5607650690756
 20
186.912431542121
 30
0.0
 11
407.8607650690757
 21
186.912431542121
 31
0.0
  0
LINE
  5
CDD
330
1F
100
AcDbEntity
  8
PEF-120A
  6
CONTINUOUS
100
AcDbLine
 10
407.8607650690757
 20
186.512431542121
 30
0.0
 11
409.5607650690756
 21
186.512431542121
 31
0.0
  0
LINE
  5
CDE
330
1F
100
AcDbEntity
  8
PEF-120A
  6
CONTINUOUS
100
AcDbLine
 10
409.9757642490756
 20
179.793631542121
 30
0.0
 11
409.5607650690756
 21
180.512431542121
 31
0.0
  0
ARC
  5
CDF
330
1F
100
AcDbEntity
  8
PEF-120A
  6
CONTINUOUS
100
AcDbCircle
 10
411.9757640772544
 20
180.948331542121
 30
0.0
 40
2.309400796890272
100
AcDbArc
 50
150.0000094361474
 51
209.9999905638505
  0
LINE
  5
CE0
330
1F
100
AcDbEntity
  8
PEF-120A
  6
CONTINUOUS
100
AcDbLine
 10
407.8607650690757
 20
181.9124315421209
 30
0.0
 11
409.5607650690756
 21
181.9124315421209
 31
0.0
  0
LINE
  5
CE1
330
1F
100
AcDbEntity
  8
PEF-120A
  6
CONTINUOUS
100
AcDbLine
 10
407.8607650690757
 20
182.312431542121
 30
0.0
 11
409.5607650690756
 21
182.312431542121
 31
0.0
  0
LINE
  5
CE2
330
1F
100
AcDbEntity
  8
PEF-120A
  6
CONTINUOUS
100
AcDbLine
 10
407.8607650690757
 20
186.912431542121
 30
0.0
 11
407.8607650690757
 21
181.9124315421209
 31
0.0
  0
ARC
  5
CE3
330
1F
100
AcDbEntity
  8
PEF-120A
  6
CONTINUOUS
100
AcDbCircle
 10
416.1939740591726
 20
184.4124315421208
 30
0.0
 40
6.633208990097048
100
AcDbArc
 50
159.6253525425369
 51
200.3746474574618
  0
LINE
  5
CE4
330
1F
100
AcDbEntity
  8
PEF-120A
  6
CONTINUOUS
100
AcDbLine
 10
409.9757642490756
 20
189.031231542121
 30
0.0
 11
409.5607650690756
 21
188.3124315421211
 31
0.0
  0
LINE
  5
CE5
330
1F
100
AcDbEntity
  8
PEF-120A
  6
CONTINUOUS
100
AcDbLine
 10
413.5607650690756
 20
192.262431542121
 30
0.0
 11
414.5607650690756
 21
192.262431542121
 31
0.0
  0
LINE
  5
CE6
330
1F
100
AcDbEntity
  8
PEF-120A
  6
CONTINUOUS
100
AcDbLine
 10
422.5607650690758
 20
191.9124315421209
 30
0.0
 11
422.5607650690756
 21
176.9124315421208
 31
0.0
  0
LINE
  5
CE7
330
1F
100
AcDbEntity
  8
PEF-120A
  6
CONTINUOUS
100
AcDbLine
 10
424.8607650690754
 20
176.9124315421208
 30
0.0
 11
424.8607650690757
 21
191.9124315421209
 31
0.0
  0
LINE
  5
CE8
330
1F
100
AcDbEntity
  8
PEF-120A
  6
CONTINUOUS
100
AcDbLine
 10
426.3607650690756
 20
178.4124315421208
 30
0.0
 11
433.7607650690753
 21
178.4124315421208
 31
0.0
  0
ARC
  5
CE9
330
1F
100
AcDbEntity
  8
PEF-120A
  6
CONTINUOUS
100
AcDbCircle
 10
426.3607650690754
 20
176.9124315421208
 30
0.0
 40
1.5
100
AcDbArc
 50
90.0
 51
179.9999999999995
  0
LINE
  5
CEB
330
1F
100
AcDbEntity
  8
PEF-120A
  6
CONTINUOUS
100
AcDbLine
 10
422.5607650690756
 20
176.9124315421208
 30
0.0
 11
424.8607650690754
 21
176.9124315421208
 31
0.0
  0
LINE
  5
CEC
330
1F
100
AcDbEntity
  8
PEF-120A
  6
HIDDEN
100
AcDbLine
 10
435.2607650690753
 20
173.7702959183897
 30
0.0
 11
437.5607650690754
 21
173.7702959183897
 31
0.0
  0
ARC
  5
CED
330
1F
100
AcDbEntity
  8
PEF-120A
  6
CONTINUOUS
100
AcDbCircle
 10
433.7607650690753
 20
176.9124315421208
 30
0.0
 40
1.500000000000026
100
AcDbArc
 50
0.0
 51
89.99999999999673
  0
LINE
  5
CEE
330
1F
100
AcDbEntity
  8
PEF-120A
  6
CONTINUOUS
100
AcDbLine
 10
426.3607650690756
 20
190.4124315421208
 30
0.0
 11
433.7607650690757
 21
190.4124315421208
 31
0.0
  0
ARC
  5
CEF
330
1F
100
AcDbEntity
  8
PEF-120A
  6
CONTINUOUS
100
AcDbCircle
 10
426.3607650690756
 20
191.9124315421209
 30
0.0
 40
1.5
100
AcDbArc
 50
179.9999999999995
 51
269.9999999999965
  0
LINE
  5
CF0
330
1F
100
AcDbEntity
  8
PEF-120A
  6
CONTINUOUS
100
AcDbLine
 10
424.8607650690757
 20
191.9124315421209
 30
0.0
 11
422.5607650690758
 21
191.9124315421209
 31
0.0
  0
LINE
  5
CF1
330
1F
100
AcDbEntity
  8
PEF-120A
  6
CONTINUOUS
100
AcDbLine
 10
437.5607650690756
 20
191.9124315421208
 30
0.0
 11
435.2607650690758
 21
191.9124315421208
 31
0.0
  0
ARC
  5
CF2
330
1F
100
AcDbEntity
  8
PEF-120A
  6
CONTINUOUS
100
AcDbCircle
 10
433.7607650690757
 20
191.9124315421209
 30
0.0
 40
1.5
100
AcDbArc
 50
270.0
 51
359.9999999999996
  0
ARC
  5
CF7
330
1F
100
AcDbEntity
  8
PEF-120A
  6
CONTINUOUS
100
AcDbCircle
 10
422.5607650690758
 20
208.3033045073809
 30
0.0
 40
12.5
100
AcDbArc
 50
24.99999999999714
 51
90.0
  0
ARC
  5
CF8
330
1F
100
AcDbEntity
  8
PEF-120A
  6
CONTINUOUS
100
AcDbCircle
 10
422.5607650690758
 20
208.3033045073809
 30
0.0
 40
17.50000000000001
100
AcDbArc
 50
24.99999999999714
 51
90.0
  0
LINE
  5
CF9
330
1F
100
AcDbEntity
  8
PEF-120A
  6
CONTINUOUS
100
AcDbLine
 10
396.4938886339472
 20
283.6909564485342
 30
0.0
 11
412.6945179393341
 21
282.6050851358966
 31
0.0
  0
LINE
  5
CFA
330
1F
100
AcDbEntity
  8
PEF-120A
  6
CONTINUOUS
100
AcDbLine
 10
395.5607650690758
 20
247.5430146819439
 30
0.0
 11
412.8371571328988
 21
249.9536740396866
 31
0.0
  0
LINE
  5
CFB
330
1F
100
AcDbEntity
  8
PEF-120A
  6
CONTINUOUS
100
AcDbLine
 10
421.5607650690762
 20
288.3033045073811
 30
0.0
 11
396.0607650690763
 21
288.3033045073813
 31
0.0
  0
LINE
  5
CFC
330
1F
100
AcDbEntity
  8
PEF-120A
  6
HIDDEN
100
AcDbLine
 10
395.5607650690763
 20
286.8033045073813
 30
0.0
 11
422.5607650690761
 21
286.8033045073811
 31
0.0
  0
ARC
  5
D07
330
1F
100
AcDbEntity
  8
PEF-120A
  6
CONTINUOUS
100
AcDbCircle
 10
397.5607650690757
 20
245.8027083241677
 30
0.0
 40
2.000000000000015
100
AcDbArc
 50
97.94347181059194
 51
179.999999999999
  0
LINE
  5
D2F
330
1F
100
AcDbEntity
  8
PEF-120A
  6
CONTINUOUS
100
AcDbLine
 10
395.5607650690761
 20
281.0568861188954
 30
0.0
 11
395.5607650690763
 21
287.8033045073813
 31
0.0
  0
LINE
  5
D31
330
1F
100
AcDbEntity
  8
PEF-120A
  6
CENTER2
100
AcDbLine
 10
389.5607650690763
 20
279.5728828206343
 30
0.0
 11
389.5607650690763
 21
295.5728828206344
 31
0.0
  0
ARC
  5
D50
330
1F
100
AcDbEntity
  8
PEF-120A
  6
CONTINUOUS
100
AcDbCircle
 10
389.5607650690763
 20
279.4969571404434
 30
0.0
 40
10.40634736693796
100
AcDbArc
 50
67.38712560451978
 51
112.6128743954802
  0
LINE
  5
D51
330
1F
100
AcDbEntity
  8
PEF-120A
  6
CONTINUOUS
100
AcDbLine
 10
395.5607650690763
 20
285.8033045073813
 30
0.0
 11
383.5607650690763
 21
285.8033045073813
 31
0.0
  0
LINE
  5
D53
330
1F
100
AcDbEntity
  8
PEF-120A
  6
CONTINUOUS
100
AcDbLine
 10
385.4107650690763
 20
287.4033045073813
 30
0.0
 11
385.5594957970703
 21
289.1033045073813
 31
0.0
  0
LINE
  5
D54
330
1F
100
AcDbEntity
  8
PEF-120A
  6
CONTINUOUS
100
AcDbLine
 10
393.7107650690766
 20
287.4033045073813
 30
0.0
 11
393.5620343410826
 21
289.1033045073813
 31
0.0
  0
LINE
  5
D55
330
1F
100
AcDbEntity
  8
PEF-120A
  6
CONTINUOUS
100
AcDbLine
 10
396.0607650690763
 20
288.3033045073813
 30
0.0
 11
395.5607650690763
 21
287.8033045073813
 31
0.0
  0
ARC
  5
D56
330
1F
100
AcDbEntity
  8
PEF-120A
  6
CONTINUOUS
100
AcDbCircle
 10
396.5607650690762
 20
284.6887177137796
 30
0.0
 40
1.0
100
AcDbArc
 50
179.999999999999
 51
266.1654005405557
  0
LINE
  5
D57
330
1F
100
AcDbEntity
  8
PEF-120A
  6
CONTINUOUS
100
AcDbLine
 10
435.2607650690758
 20
254.6941774726414
 30
0.0
 11
435.2607650690761
 21
297.9784487201034
 31
0.0
  0
LINE
  5
D58
330
1F
100
AcDbEntity
  8
PEF-120A
  6
CONTINUOUS
100
AcDbLine
 10
437.5607650690763
 20
297.9784487201033
 30
0.0
 11
437.560765069076
 21
254.6941774726416
 31
0.0
  0
LINE
  5
D59
330
1F
100
AcDbEntity
  8
PEF-120A
  6
CONTINUOUS
100
AcDbLine
 10
422.5607650690761
 20
254.6941774726416
 30
0.0
 11
422.5607650690761
 21
269.6941774726416
 31
0.0
  0
LINE
  5
D5A
330
1F
100
AcDbEntity
  8
PEF-120A
  6
CONTINUOUS
100
AcDbLine
 10
424.8607650690761
 20
269.6941774726416
 30
0.0
 11
424.8607650690761
 21
254.6941774726416
 31
0.0
  0
LINE
  5
D5B
330
1F
100
AcDbEntity
  8
PEF-120A
  6
CONTINUOUS
100
AcDbLine
 10
414.5607650690761
 20
254.3441774726415
 30
0.0
 11
414.5607650690761
 21
270.0441774726414
 31
0.0
  0
LINE
  5
D5C
330
1F
100
AcDbEntity
  8
PEF-120A
  6
CONTINUOUS
100
AcDbLine
 10
414.5607650690761
 20
280.6095626054055
 30
0.0
 11
414.5607650690758
 21
251.9344838304176
 31
0.0
  0
ARC
  5
D5D
330
1F
100
AcDbEntity
  8
PEF-120A
  6
CONTINUOUS
100
AcDbCircle
 10
411.9757640772546
 20
265.6582774726416
 30
0.0
 40
2.30940079689024
100
AcDbArc
 50
150.0000094361474
 51
209.9999905638518
  0
LINE
  5
D5E
330
1F
100
AcDbEntity
  8
PEF-120A
  6
CONTINUOUS
100
AcDbLine
 10
409.5607650690761
 20
258.2941774726415
 30
0.0
 11
409.5607650690761
 21
266.0941774726416
 31
0.0
  0
LINE
  5
D5F
330
1F
100
AcDbEntity
  8
PEF-120A
  6
CONTINUOUS
100
AcDbLine
 10
413.5607650690761
 20
270.0441774726415
 30
0.0
 11
413.5607650690761
 21
254.3441774726415
 31
0.0
  0
LINE
  5
D63
330
1F
100
AcDbEntity
  8
PEF-120A
  6
CENTER2
100
AcDbLine
 10
405.3745098871321
 20
262.1941774726416
 30
0.0
 11
439.7773841386293
 21
262.1941774726415
 31
0.0
  0
LINE
  5
D68
330
1F
100
AcDbEntity
  8
PEF-120A
  6
CONTINUOUS
100
AcDbLine
 10
413.5607650690761
 20
264.5035774726415
 30
0.0
 11
409.9757642490762
 21
264.5035774726415
 31
0.0
  0
LINE
  5
D69
330
1F
100
AcDbEntity
  8
PEF-120A
  6
CONTINUOUS
100
AcDbLine
 10
413.5607650690761
 20
257.5753774726416
 30
0.0
 11
409.9757642490762
 21
257.5753774726416
 31
0.0
  0
LINE
  5
D6A
330
1F
100
AcDbEntity
  8
PEF-120A
  6
CONTINUOUS
100
AcDbLine
 10
413.5607650690761
 20
259.8847774726416
 30
0.0
 11
409.9757642490763
 21
259.8847774726416
 31
0.0
  0
LINE
  5
D6B
330
1F
100
AcDbEntity
  8
PEF-120A
  6
CONTINUOUS
100
AcDbLine
 10
407.8607650690761
 20
264.6941774726416
 30
0.0
 11
409.5607650690761
 21
264.6941774726416
 31
0.0
  0
LINE
  5
D6C
330
1F
100
AcDbEntity
  8
PEF-120A
  6
CONTINUOUS
100
AcDbLine
 10
407.8607650690761
 20
264.2941774726415
 30
0.0
 11
409.5607650690761
 21
264.2941774726415
 31
0.0
  0
LINE
  5
D6D
330
1F
100
AcDbEntity
  8
PEF-120A
  6
CONTINUOUS
100
AcDbLine
 10
409.9757642490762
 20
257.5753774726416
 30
0.0
 11
409.5607650690761
 21
258.2941774726415
 31
0.0
  0
ARC
  5
D6E
330
1F
100
AcDbEntity
  8
PEF-120A
  6
CONTINUOUS
100
AcDbCircle
 10
411.9757640772546
 20
258.7300774726414
 30
0.0
 40
2.30940079689025
100
AcDbArc
 50
150.0000094361474
 51
209.9999905638505
  0
LINE
  5
D6F
330
1F
100
AcDbEntity
  8
PEF-120A
  6
CONTINUOUS
100
AcDbLine
 10
409.5607650690761
 20
259.6941774726416
 30
0.0
 11
407.8607650690761
 21
259.6941774726416
 31
0.0
  0
LINE
  5
D70
330
1F
100
AcDbEntity
  8
PEF-120A
  6
CONTINUOUS
100
AcDbLine
 10
407.860765069076
 20
260.0941774726416
 30
0.0
 11
409.5607650690761
 21
260.0941774726416
 31
0.0
  0
LINE
  5
D71
330
1F
100
AcDbEntity
  8
PEF-120A
  6
CONTINUOUS
100
AcDbLine
 10
407.8607650690761
 20
259.6941774726416
 30
0.0
 11
407.8607650690761
 21
264.6941774726416
 31
0.0
  0
ARC
  5
D72
330
1F
100
AcDbEntity
  8
PEF-120A
  6
CONTINUOUS
100
AcDbCircle
 10
416.1939740591732
 20
262.1941774726416
 30
0.0
 40
6.633208990097048
100
AcDbArc
 50
159.6253525425369
 51
200.3746474574618
  0
LINE
  5
D73
330
1F
100
AcDbEntity
  8
PEF-120A
  6
CONTINUOUS
100
AcDbLine
 10
413.5607650690761
 20
254.3441774726415
 30
0.0
 11
414.5607650690761
 21
254.3441774726415
 31
0.0
  0
ARC
  5
D74
330
1F
100
AcDbEntity
  8
PEF-120A
  6
CONTINUOUS
100
AcDbCircle
 10
412.5607650690757
 20
251.9344838304176
 30
0.0
 40
1.999999999999993
100
AcDbArc
 50
277.9434718105886
 51
359.9999999999996
  0
LINE
  5
D75
330
1F
100
AcDbEntity
  8
PEF-120A
  6
CONTINUOUS
100
AcDbLine
 10
426.360765069076
 20
256.1941774726416
 30
0.0
 11
433.7607650690761
 21
256.1941774726415
 31
0.0
  0
ARC
  5
D76
330
1F
100
AcDbEntity
  8
PEF-120A
  6
CONTINUOUS
100
AcDbCircle
 10
426.360765069076
 20
254.6941774726416
 30
0.0
 40
1.5
100
AcDbArc
 50
90.0
 51
180.0
  0
LINE
  5
D77
330
1F
100
AcDbEntity
  8
PEF-120A
  6
CONTINUOUS
100
AcDbLine
 10
424.8607650690761
 20
254.6941774726416
 30
0.0
 11
422.5607650690761
 21
254.6941774726416
 31
0.0
  0
LINE
  5
D78
330
1F
100
AcDbEntity
  8
PEF-120A
  6
CONTINUOUS
100
AcDbLine
 10
437.560765069076
 20
254.6941774726416
 30
0.0
 11
435.2607650690758
 21
254.6941774726414
 31
0.0
  0
ARC
  5
D79
330
1F
100
AcDbEntity
  8
PEF-120A
  6
CONTINUOUS
100
AcDbCircle
 10
433.7607650690761
 20
254.6941774726414
 30
0.0
 40
1.5
100
AcDbArc
 50
0.0
 51
90.0
  0
ARC
  5
D7B
330
1F
100
AcDbEntity
  8
PEF-120A
  6
CONTINUOUS
100
AcDbCircle
 10
412.5607650690762
 20
280.6095626054055
 30
0.0
 40
2.0
100
AcDbArc
 50
359.9999999999991
 51
86.16540054055255
  0
LINE
  5
D7C
330
1F
100
AcDbEntity
  8
PEF-120A
  6
CONTINUOUS
100
AcDbLine
 10
413.5607650690761
 20
266.8129774726417
 30
0.0
 11
409.9757642490763
 21
266.8129774726417
 31
0.0
  0
LINE
  5
D7D
330
1F
100
AcDbEntity
  8
PEF-120A
  6
CONTINUOUS
100
AcDbLine
 10
409.9757642490763
 20
266.8129774726417
 30
0.0
 11
409.5607650690761
 21
266.0941774726416
 31
0.0
  0
LINE
  5
D7E
330
1F
100
AcDbEntity
  8
PEF-120A
  6
CONTINUOUS
100
AcDbLine
 10
414.5607650690761
 20
270.0441774726414
 30
0.0
 11
413.5607650690761
 21
270.0441774726415
 31
0.0
  0
LINE
  5
D7F
330
1F
100
AcDbEntity
  8
PEF-120A
  6
CONTINUOUS
100
AcDbLine
 10
426.3607650690761
 20
268.1941774726416
 30
0.0
 11
433.7607650690761
 21
268.1941774726416
 31
0.0
  0
ARC
  5
D80
330
1F
100
AcDbEntity
  8
PEF-120A
  6
CONTINUOUS
100
AcDbCircle
 10
426.3607650690761
 20
269.6941774726416
 30
0.0
 40
1.5
100
AcDbArc
 50
179.9999999999995
 51
270.0
  0
LINE
  5
D81
330
1F
100
AcDbEntity
  8
PEF-120A
  6
CONTINUOUS
100
AcDbLine
 10
422.5607650690761
 20
269.6941774726416
 30
0.0
 11
424.8607650690761
 21
269.6941774726416
 31
0.0
  0
LINE
  5
D83
330
1F
100
AcDbEntity
  8
PEF-120A
  6
HIDDEN
100
AcDbLine
 10
435.2607650690761
 20
272.8363130963724
 30
0.0
 11
437.5607650690762
 21
272.8363130963724
 31
0.0
  0
ARC
  5
D84
330
1F
100
AcDbEntity
  8
PEF-120A
  6
CONTINUOUS
100
AcDbCircle
 10
433.7607650690761
 20
269.6941774726416
 30
0.0
 40
1.5
100
AcDbArc
 50
269.9999999999965
 51
359.9999999999991
  0
LINE
  5
D85
330
1F
100
AcDbEntity
  8
PEF-120A
  6
CONTINUOUS
100
AcDbLine
 10
421.5607650690762
 20
288.3033045073811
 30
0.0
 11
422.5607650690761
 21
287.3033045073811
 31
0.0
  0
LINE
  5
D86
330
1F
100
AcDbEntity
  8
PEF-120A
  6
CONTINUOUS
100
AcDbLine
 10
435.2607650690761
 20
297.9784487201034
 30
0.0
 11
437.5607650690763
 21
297.9784487201033
 31
0.0
  0
LINE
  5
D87
330
1F
100
AcDbEntity
  8
PEF-120A
  6
HIDDEN
100
AcDbLine
 10
435.2607650690763
 20
293.9784487201036
 30
0.0
 11
437.5607650690763
 21
293.9784487201036
 31
0.0
  0
LINE
  5
D88
330
1F
100
AcDbEntity
  8
PEF-120A
  6
CONTINUOUS
100
AcDbLine
 10
466.1013750871871
 20
169.7215701711463
 30
0.0
 11
461.5724306514147
 21
165.7860063871777
 31
0.0
  0
LINE
  5
D89
330
1F
100
AcDbEntity
  8
PEF-120A
  6
CONTINUOUS
100
AcDbLine
 10
464.5916807011071
 20
168.4097687854379
 30
0.0
 11
454.7058516201913
 21
179.7839482530469
 31
0.0
  0
LINE
  5
D8A
330
1F
100
AcDbEntity
  8
PEF-120A
  6
CONTINUOUS
100
AcDbLine
 10
463.0821250374949
 20
167.097807772886
 30
0.0
 11
452.8202406664854
 21
178.9046734250333
 31
0.0
  0
LINE
  5
D8B
330
1F
100
AcDbEntity
  8
PEF-120A
  6
CONTINUOUS
100
AcDbLine
 10
455.0860101340773
 20
179.9612190793851
 30
0.0
 11
450.5544711988941
 21
177.8481277706814
 31
0.0
  0
LINE
  5
D8C
330
1F
100
AcDbEntity
  8
PEF-120A
  6
CONTINUOUS
100
AcDbLine
 10
443.0036800167461
 20
194.0408517161201
 30
0.0
 11
450.5544711988939
 21
177.8481277706814
 31
0.0
  0
LINE
  5
D8D
330
1F
100
AcDbEntity
  8
PEF-120A
  6
CONTINUOUS
100
AcDbLine
 10
453.2932682442886
 20
163.1412325318298
 30
0.0
 11
450.93462971278
 21
178.025398597019
 31
0.0
  0
LINE
  5
D8E
330
1F
100
AcDbEntity
  8
PEF-120A
  6
CONTINUOUS
100
AcDbLine
 10
451.3179572365053
 20
162.8279492136682
 30
0.0
 11
457.2439233720278
 21
163.76759029442
 31
0.0
  0
LINE
  5
D8F
330
1F
100
AcDbEntity
  8
PEF-120A
  6
CONTINUOUS
100
AcDbLine
 10
455.2686123642448
 20
163.4543069762584
 30
0.0
 11
452.8202406664854
 21
178.9046734250333
 31
0.0
  0
LINE
  5
D90
330
1F
100
AcDbEntity
  8
PEF-120A
  6
CONTINUOUS
100
AcDbLine
 10
447.5352189519293
 20
196.1539430248236
 30
0.0
 11
455.0860101340773
 21
179.9612190793851
 31
0.0
  0
LINE
  5
D91
330
1F
100
AcDbEntity
  8
PEF-120A
  6
CONTINUOUS
100
AcDbLine
 10
447.5352189519293
 20
196.1539430248236
 30
0.0
 11
446.7356810664202
 21
195.3301203166958
 31
0.0
  0
LINE
  5
D92
330
1F
100
AcDbEntity
  8
PEF-120A
  6
CONTINUOUS
100
AcDbLine
 10
446.7356810664202
 20
195.3301203166958
 30
0.0
 11
445.4299057090135
 21
195.4133935933895
 31
0.0
  0
LINE
  5
D93
330
1F
100
AcDbEntity
  8
PEF-120A
  6
CONTINUOUS
100
AcDbLine
 10
444.679779439865
 20
194.3030832374746
 30
0.0
 11
443.5129163545233
 21
194.7472073798405
 31
0.0
  0
LINE
  5
D94
330
1F
100
AcDbEntity
  8
PEF-120A
  6
CONTINUOUS
100
AcDbLine
 10
443.5129163545233
 20
194.7472073798405
 30
0.0
 11
443.0036800167461
 21
194.0408517161202
 31
0.0
  0
LINE
  5
D95
330
1F
100
AcDbEntity
  8
PEF-120A
  6
CONTINUOUS
100
AcDbLine
 10
445.4299057090135
 20
195.4133935933895
 30
0.0
 11
444.679779439865
 21
194.3030832374746
 31
0.0
  0
LINE
  5
D96
330
1F
100
AcDbEntity
  8
PEF-120A
  6
CONTINUOUS
100
AcDbLine
 10
445.3859549119567
 20
198.2246173957354
 30
0.0
 11
444.0801795545501
 21
198.307890672429
 31
0.0
  0
LINE
  5
D97
330
1F
100
AcDbEntity
  8
PEF-120A
  6
CONTINUOUS
100
AcDbLine
 10
444.0801795545501
 20
198.307890672429
 30
0.0
 11
443.3300532854016
 21
197.1975803165142
 31
0.0
  0
LINE
  5
D98
330
1F
100
AcDbEntity
  8
PEF-120A
  6
CONTINUOUS
100
AcDbLine
 10
443.3300532854016
 20
197.1975803165142
 30
0.0
 11
442.1631902000596
 21
197.64170445888
 31
0.0
  0
LINE
  5
D99
330
1F
100
AcDbEntity
  8
PEF-120A
  6
CONTINUOUS
100
AcDbLine
 10
446.185492797466
 20
199.0484401038632
 30
0.0
 11
445.3859549119567
 21
198.2246173957354
 31
0.0
  0
ENDSEC
  0
SECTION
  2
OBJECTS
  0
DICTIONARY
  5
C
330
0
100
AcDbDictionary
  3
ACAD_GROUP
350
D
  3
ACAD_LAYOUT
350
1A
  3
ACAD_MLINESTYLE
350
17
  3
ACAD_PLOTSETTINGS
350
19
  3
ACAD_PLOTSTYLENAME
350
E
  3
ACADDIM
350
453
  3
DWGPROPS
350
FBB
  3
ACDBHEADERROUNDTRIPXREC
350
1017
  0
DICTIONARY
  5
FE0
330
1F
100
AcDbDictionary
280
     1
  3
ACAD_LAYOUTSELFREF
360
1038
  0
DICTIONARY
  5
FDE
330
1B
100
AcDbDictionary
280
     1
  3
ACAD_LAYOUTSELFREF
360
1037
  0
DICTIONARY
  5
D
102
{ACAD_REACTORS
330
C
102
}
330
C
100
AcDbDictionary
  0
DICTIONARY
  5
1A
102
{ACAD_REACTORS
330
C
102
}
330
C
100
AcDbDictionary
  0
DICTIONARY
  5
17
102
{ACAD_REACTORS
330
C
102
}
330
C
100
AcDbDictionary
  3
STANDARD
350
18
  0
DICTIONARY
  5
19
102
{ACAD_REACTORS
330
C
102
}
330
C
100
AcDbDictionary
  0
ACDBDICTIONARYWDFLT
  5
E
102
{ACAD_REACTORS
330
C
102
}
330
C
100
AcDbDictionary
281
     1
  3
Normal
350
F
100
AcDbDictionaryWithDefault
340
F
  0
XRECORD
  5
453
102
{ACAD_REACTORS
330
C
102
}
330
C
100
AcDbXrecord
 90
   990106
  3

 60
     0
 61
     0
 62
     4
 63
     4
 64
     1
 65
     0
 66
     0
 67
     3
 68
     1
 69
     0
 70
     0
 71
     0
 72
     0
 40
0.0
170
     1
340
0
  0
XRECORD
  5
FBB
102
{ACAD_REACTORS
330
C
102
}
330
C
100
AcDbXrecord
  1
DWGPROPS COOKIE
  2

  3

  4

  6

  7

  8
한신
  9

300
=
301
=
302
=
303
=
304
=
305
=
306
=
307
=
308
=
309
=
 40
0.0829350694444445
 41
2451736.638740857
 42
2451814.600087615
  1

 90
        0
  0
DICTIONARY
  5
1017
102
{ACAD_REACTORS
330
C
102
}
330
C
100
AcDbDictionary
  3
TSTACKALIGN
350
1018
  3
TSTACKSIZE
350
1019
  3
HYPERLINKBASE
350
101A
  3
STYLESHEET
350
101B
  3
LAYOUTDICT
350
101C
  3
PLOTSETDICT
350
101D
  3
PLOTSTYLNAMDICT
350
101E
  3
LWETCUNION
350
101F
  3
INSUNITS
350
1020
  3
CEPSNTYPE
350
1021
  3
FINGERPRINTGUID
350
1022
  3
VERSIONGUID
350
1023
  3
PSVPSCALE
350
1024
  3
PUCSORTHOREF
350
1025
  3
PUCSORTHOVIEW
350
1026
  3
PUCSBASE
350
1027
  3
PUCSORGTOP
350
1028
  3
PUCSORGBOTTOM
350
1029
  3
PUCSORGLEFT
350
102A
  3
PUCSORGRIGHT
350
102B
  3
PUCSORGFRONT
350
102C
  3
PUCSORGBACK
350
102D
  3
UCSORTHOREF
350
102E
  3
UCSORTHOVIEW
350
102F
  3
UCSBASE
350
1030
  3
UCSORGTOP
350
1031
  3
UCSORGBOTTOM
350
1032
  3
UCSORGLEFT
350
1033
  3
UCSORGRIGHT
350
1034
  3
UCSORGFRONT
350
1035
  3
UCSORGBACK
350
1036
  0
XRECORD
  5
1038
102
{ACAD_REACTORS
330
FE0
102
}
330
FE0
100
AcDbXrecord
340
1F
  0
XRECORD
  5
1037
102
{ACAD_REACTORS
330
FDE
102
}
330
FDE
100
AcDbXrecord
340
1B
  0
MLINESTYLE
  5
18
102
{ACAD_REACTORS
330
17
102
}
330
17
100
AcDbMlineStyle
  2
STANDARD
 70
     0
  3

 62
   256
 51
90.0
 52
90.0
 71
     2
 49
0.5
 62
   256
  6
BYLAYER
 49
-0.5
 62
   256
  6
BYLAYER
  0
ACDBPLACEHOLDER
  5
F
102
{ACAD_REACTORS
330
E
102
}
330
E
100
AcDbPlaceHolder
280
     0
  0
XRECORD
  5
1018
102
{ACAD_REACTORS
330
1017
102
}
330
1017
100
AcDbXrecord
 90
        1
  0
XRECORD
  5
1019
102
{ACAD_REACTORS
330
1017
102
}
330
1017
100
AcDbXrecord
 90
       70
  0
XRECORD
  5
101A
102
{ACAD_REACTORS
330
1017
102
}
330
1017
100
AcDbXrecord
  1

  0
XRECORD
  5
101B
102
{ACAD_REACTORS
330
1017
102
}
330
1017
100
AcDbXrecord
  1

  0
XRECORD
  5
101C
102
{ACAD_REACTORS
330
1017
102
}
330
1017
100
AcDbXrecord
340
1A
  0
XRECORD
  5
101D
102
{ACAD_REACTORS
330
1017
102
}
330
1017
100
AcDbXrecord
340
19
  0
XRECORD
  5
101E
102
{ACAD_REACTORS
330
1017
102
}
330
1017
100
AcDbXrecord
340
E
  0
XRECORD
  5
101F
102
{ACAD_REACTORS
330
1017
102
}
330
1017
100
AcDbXrecord
 90
    10781
  0
XRECORD
  5
1020
102
{ACAD_REACTORS
330
1017
102
}
330
1017
100
AcDbXrecord
 90
        1
  0
XRECORD
  5
1021
102
{ACAD_REACTORS
330
1017
102
}
330
1017
100
AcDbXrecord
 90
        0
  0
XRECORD
  5
1022
102
{ACAD_REACTORS
330
1017
102
}
330
1017
100
AcDbXrecord
  1
{FDEAD576-A652-11D2-9A35-0060089B3A3F}
  0
XRECORD
  5
1023
102
{ACAD_REACTORS
330
1017
102
}
330
1017
100
AcDbXrecord
  1
{04E4DCED-0C95-4818-BCB4-E70209A72F4A}
  0
XRECORD
  5
1024
102
{ACAD_REACTORS
330
1017
102
}
330
1017
100
AcDbXrecord
 40
0.0
  0
XRECORD
  5
1025
102
{ACAD_REACTORS
330
1017
102
}
330
1017
100
AcDbXrecord
340
0
  0
XRECORD
  5
1026
102
{ACAD_REACTORS
330
1017
102
}
330
1017
100
AcDbXrecord
 70
     0
  0
XRECORD
  5
1027
102
{ACAD_REACTORS
330
1017
102
}
330
1017
100
AcDbXrecord
340
0
  0
XRECORD
  5
1028
102
{ACAD_REACTORS
330
1017
102
}
330
1017
100
AcDbXrecord
 10
0.0
 20
0.0
 30
0.0
  0
XRECORD
  5
1029
102
{ACAD_REACTORS
330
1017
102
}
330
1017
100
AcDbXrecord
 10
0.0
 20
0.0
 30
0.0
  0
XRECORD
  5
102A
102
{ACAD_REACTORS
330
1017
102
}
330
1017
100
AcDbXrecord
 10
0.0
 20
0.0
 30
0.0
  0
XRECORD
  5
102B
102
{ACAD_REACTORS
330
1017
102
}
330
1017
100
AcDbXrecord
 10
0.0
 20
0.0
 30
0.0
  0
XRECORD
  5
102C
102
{ACAD_REACTORS
330
1017
102
}
330
1017
100
AcDbXrecord
 10
0.0
 20
0.0
 30
0.0
  0
XRECORD
  5
102D
102
{ACAD_REACTORS
330
1017
102
}
330
1017
100
AcDbXrecord
 10
0.0
 20
0.0
 30
0.0
  0
XRECORD
  5
102E
102
{ACAD_REACTORS
330
1017
102
}
330
1017
100
AcDbXrecord
340
0
  0
XRECORD
  5
102F
102
{ACAD_REACTORS
330
1017
102
}
330
1017
100
AcDbXrecord
 70
     0
  0
XRECORD
  5
1030
102
{ACAD_REACTORS
330
1017
102
}
330
1017
100
AcDbXrecord
340
0
  0
XRECORD
  5
1031
102
{ACAD_REACTORS
330
1017
102
}
330
1017
100
AcDbXrecord
 10
0.0
 20
0.0
 30
0.0
  0
XRECORD
  5
1032
102
{ACAD_REACTORS
330
1017
102
}
330
1017
100
AcDbXrecord
 10
0.0
 20
0.0
 30
0.0
  0
XRECORD
  5
1033
102
{ACAD_REACTORS
330
1017
102
}
330
1017
100
AcDbXrecord
 10
0.0
 20
0.0
 30
0.0
  0
XRECORD
  5
1034
102
{ACAD_REACTORS
330
1017
102
}
330
1017
100
AcDbXrecord
 10
0.0
 20
0.0
 30
0.0
  0
XRECORD
  5
1035
102
{ACAD_REACTORS
330
1017
102
}
330
1017
100
AcDbXrecord
 10
0.0
 20
0.0
 30
0.0
  0
XRECORD
  5
1036
102
{ACAD_REACTORS
330
1017
102
}
330
1017
100
AcDbXrecord
 10
0.0
 20
0.0
 30
0.0
  0
ENDSEC
  0
EOF
